20130611

MICHAEL LEDNER YOU ARE MY HIDING PLACE TAB (COVER BY AMORFRANCISCO)


Amorfrancisco plays an acoustic cover of You are my hiding place by Michael Ledner. 
CAPO on the 1st, see the TAB under the video.



MICHAEL LEDNER YOU ARE MY HIDING PLACE TAB

PDF >>

Intro

e-----------------0-----------------------1-----------------------------
B---------1-----------1-----------3-----------3-------------------------
G-------------2---------------2-------2---------------------------------
D-----2-----------2-------0---------------0-----------------------------
A-0---------------------------------------------------------------------
E-----------------------------------------------------------------------


e-----------------3-----------------------0-----------------------------
B---------0-----------0-----------1-----------1-------------------------
G-----0-------0-----------------------0---------------------------------
D-----------------0-----------2-----------2-----------------------------
A---------2---------------3---------------------------------------------
E-3---------------------------------------------------------------------


e---------0-------5-------0-------3-----------1---1---------------------
B-1-------------------------------3-------3---------------3-------------
G-2-------------------------------2---2---------------2-------2---------
D-2-------------------------------0---------------0---------------------
A-0---------------------------------------------------------------------
E-----------------------------------------------------------------------



e-----------------3---------------1-----------0---0---------------------
B---------0---------------0---------------0---------------3-------------
G-------------0-------0-------0---0---0---------------0-------0---------
D-----------------------------------------------------------------------
A-----2---------------------------3---------------3---------------------
E-3---------------3-----------------------------------------------------


e---------0-------0---------------0-------------------------------------
B-1-----------1-----------1-------3-----------3---3-------1-------------
G-2-------------------2-------2---2-------2-----------2-------0---------
D-2---------------2---------------0---------------0-------0-------------
A-0---------------------------------------------------------------------
E-----------------------------------------------------------------------


e-----------------------------------------0---0---2-------4-------------
B-0-------0-------1-------3-------0-------------------------------------
G-----1-------1-------0-------0-------------------------------0---------
D-----------------------------------------------------------------------
A-----------------------------------------------------------------------
E-0---------------0---------------0-------------------------------------


e---------0-------------------------------3/5---3---1-------5-----------
B-1-----------1-----------1---------------------------------------------
G-2-------------------2---------------2-------------------------0-------
D-2---------------2-----------2---0-------------------------------------
A-0---------------------------------------------------------------------
E-----------------------------------------------------------------------


e-3---------------------------------------3---1---0-------3-------------
B---------0---------------0-------0-------0---------------1-------------
G-----0-------0-------0-------0-------0---------------0---0---0---------
D---------------------------------------------------------2-------------
A---------------------------------3---------------3-------3-------------
E-3---------------3-----------------------------------------------------


e-1---------------1-------0---------------1-------0-------0h1-----------
B-1-------1-----------------------3-----------3-------------------------
G-2-----------2-------2-------2---2-------------------2-----------------
D-3---------------3-------2-------0---------------0-------0-------------
A-3---------------------------------------------------------------------
E-----------------------------------------------------------------------


e-0---------------0-------1-------0-------------------------------------
B---------0-------------------------------0---------------0-------------
G-----1-------1-------1-------1-------1-------1-------1-------1---------
D-------------------------------------------------2---------------------
A-----------------------------------------------------------------------
E-0---------------0---------------0-------------------------------------


Verse

e-----------------0-------------------------------1---------------------
B---------1---------------1---------------3---------------3-------------
G-------------2-------2-------2-------2-------2-------2-------2---------
D-----2---------------------------0-------------------------------------
A-0---------------------------------------------------------------------
E-----------------------------------------------------------------------


e-----------------3-------------------------------0---------------------
B---------0---------------0---------------1---------------1-------------
G-----0-------0-------0-------0---------------0-------0-------0---------
D-----------------0-------------------2---------------------------------
A---------2-----------------------3-------------------------------------
E-3---------------------------------------------------------------------


e-----------------0-------------------------------1---------------------
B---------1---------------1---------------3---------------3---1---------
G-------------2-------2-------2-------2-------2-------2-----------------
D-----2---------------------------0---------------0---------------------
A-0---------------------------------------------------------------------
E-----------------------------------------------------------------------


e---------0---------------------------------------0---------------------
B-0-----------0-----------0---------------3---------------3-------------
G-----1---------------1-------1-------1-------1-------1-------1---------
D-----------------------------------------------------------------------
A-------------------------------------------------2---------------------
E-0---------------0---------------0-------------------------------------


e-----------------0-------------------------------1---------------------
B---------1---------------1---------------3---------------3-------------
G-------------2-------2-------2-------2-------2-------2-------2---------
D-----2-----------2---------------0---------------0---------------------
A-0---------------------------------------------------------------------
E-----------------------------------------------------------------------


e-----------------3-------------------------------0---------------------
B---------0---------------0---------------0---------------0-------------
G-----0-------0-------0-------0---------------0-------0-------0---------
D-----------------0-------------------2-----------2---------------------
A---------2-----------------------3-------------------------------------
E-3---------------------------------------------------------------------


e-----------------1-------------------------------1---------------------
B---------1---------------1---------------3---------------3-------------
G-----2-------2-------2-------2-------2-------2-------2-------2---------
D-----------------3---------------0---------------0---------------------
A---------3-------------------------------------------------------------
E-1---------------------------------------------------------------------


e---------0-------0-------------------------------0---------------------
B-0-----------0-----------0---------------3---------------3-------------
G-----1---------------1-------1-------1-------1-------1-------1---------
D-----------------2-----------------------------------------------------
A---------2-------------------------------2-------2---------------------
E-0-------------------------------0-------------------------------------


Instrumental

e---------0-------5-------0-------3-----------1---1---------------------
B---------1-----------------------3-------3---------------3-------------
G---------2-----------------------2---2---------------2-------2---------
D---------2-----------------------0---------------0---------------------
A-0---------------------------------------------------------------------
E-----------------------------------------------------------------------


e---------0-------3---------------1-------0h1-0---0---------------------
B-------------------------3-------1-----------------------3-------------
G-----0-------0-------0-------0---0---0---------------0-------0---------
D---------------------------------2-------------------------------------
A---------------------------------3---------------3---------------------
E-3---------------3-----------------------------------------------------


e---------0-------0---------------0-------------------------------------
B-1-----------------------1-------3-----------3---3-------1-------------
G-2-----------2-------2-------2---2-------2-----------2-------2---------
D-2---------------2---------------0---------------0-------0-------------
A-0---------------------------------------------------------------------
E-----------------------------------------------------------------------


e-----------------------------------------0---0---2-------4-------------
B-0-------0-------1-------3-------0-------------------------------------
G-----1-------1-------0-------0-------1---------------------------------
D-----------------------------------------------------------------------
A-----------------------------------------------------------------------
E-0-------------------------------0-------------------------------------


e-0---------------------------------------5---3---1-------5-------------
B-1-------1---------------1---------------------------------------------
G-2-----------2-------2---------------2-----------------------0---------
D-2---------------2-----------2---0-------------------------------------
A-0---------------------------------------------------------------------
E-----------------------------------------------------------------------


e-3---------------------------------------3---1---0-------3-------------
B---------0---------------1---3---1-----------------------0-------------
G-----0-------0-------0---------------0---------------0---0---0---------
D-------------------------------------------------2-------0-------------
A---------------------------------3-------------------------------------
E-3---------------3-----------------------------------------------------


e-1---------------1-------0---------------1-------0-------0h1-----------
B-1-------1-----------------------3-----------3-------------------------
G-2-----------2-------2-------2---2-------------------2-------2---------
D-3---------------3-------2-------0-----------------------0-------------
A-3---------------------------------------------------------------------
E-----------------------------------------------------------------------


e-0---------------0-------1-------0-------0---0---2-------4-------------
B---------0---------------1-----------0---------------------------------
G-----1-------1-------1-------1-----------------------------------------
D-----------------------------------------------------------------------
A-----------------------------------------------------------------------
E-0---------------0---------------0---------------0---------------------


e-----------------0---------------0-------------------------------------
B-------------1-----------1-------1-------------------------------------
G---------2-----------2-------2---2-------------------------------------
D-----2---------------------------2-------------------------------------
A-0-------------------------------0-------------------------------------
E---------------------------------0-------------------------------------




MORE ON GUITAR TABS A-Z >>