20130606

R.E.M. LOSING MY RELIGION TAB (ACOUSTIC)

Cool acoustic version of R.E.M. Losing My Religion played in a living room.
One acoustic guitar (12 stringed), an acoustic bass guitar and some drums are enough to make good music and get in the right mood.
TAB below.


REM LOSING MY RELIGION TAB

PDF >>

Intro

          F                               Am

e---0-----1---x-1-1-1-1-1---1-1-1---0-----0---x-0-0-0---0---0-0-0-------
B-3---3---1---x-1-1-1-1-1---1-1-1-3---3---1---x-1-1-1---1---1-1-1-------
G-------0-2---x-2-2-0-0-2---2-2-2-------0-2---x-2-2-2---2---2-2-2-------
D---------3---x-3-3-3-3-3---3-3-3---------2---x-2-2-0---2---2-2-2-------
A---------3---x-3-3-3-3-3---3-3-3---------0---x-0-0-0---0---0-0-0-------
E-----------------------------------------------------------------------

          F                               Am            G

e---0-----1---x-1-1-1-1-1---1-1-1---0-----0---0---0-0-x-3-3-3-----------
B-3---3---1---x-1-1-1-1-1---1-1-1-3---3---1---1---1-1-x-3-3-3-----------
G-------0-2---x-2-2-0-0-2---2-2-2-------0-2---2---2-2-x-0-0-0-----2-0---
D---------3---x-3-3-3-3-3---3-3-3---------2---2---2-2-x-0-0-0-0-2----2-0
A---------3---x-3-3-3-3-3---3-3-3---------0---0---0-0-x-2-2-2-----------
E-------------------------------------------------------3-3-3-----------



Verse

  Am                              Em

e-0---0-0-0-0-0-0---0-0-0-0-0-0-0-0---0-0-0-0-0-0---0-0-0-0-0-0-0-------
B-1---1-1-1-1-1-1---1-1-1-1-1-1-1-0---0-0-0-0-0-0---0-0-0-0-0-0-0-------
G-2---2-2-2-2-2-2---2-2-2-2-2-2-2-0---0-0-0-0-0-0---0-0-0-0-0-0-0-------
D-2---2-2-0-2-2-2---2-2-2-0-2-2-2-2---2-2-0-2-2-2---2-2-2-0-2-2-2-------
A-0---0-0-0-0-0-0---0-0-0-0-0-0-0-2---2-2-2-2-2-2---2-2-2-2-2-2-2-------
E---------------------------------0---0-0-0-0-0-0---0-0-0-0-0-0-0-------

  Am                              Em

e-0---0-0-0-0-0-0---0-0-0-0-0-0-0-0---0-0-0-0-0-0---0-0-0-0-0-0-0-------
B-1---1-1-1-1-1-1---1-1-1-1-1-1-1-0---0-0-0-0-0-0---0-0-0-0-0-0-0-------
G-2---2-2-2-2-2-2---2-2-2-2-2-2-2-0---0-0-0-0-0-0---0-0-0-0-0-0-0-------
D-2---2-2-0-2-2-2---2-2-2-0-2-2-2-2---2-2-0-2-2-2---2-2-2-0-2-2-2-------
A-0---0-0-0-0-0-0---0-0-0-0-0-0-0-2---2-2-2-2-2-2---2-2-2-2-2-2-2-------
E---------------------------------0---0-0-0-0-0-0---0-0-0-0-0-0-0-------

  Am                              Em

e-0---0-0-0-0-0-0---0-0-0-0-0-0-0-0---0-0-0-0-0-0---0-0-0-0-0-0-0-------
B-1---1-1-1-1-1-1---1-1-1-1-1-1-1-0---0-0-0-0-0-0---0-0-0-0-0-0-0-------
G-2---2-2-2-2-2-2---2-2-2-2-2-2-2-0---0-0-0-0-0-0---0-0-0-0-0-0-0-------
D-2---2-2-0-2-2-2---2-2-2-0-2-2-2-2---2-2-0-2-2-2---2-2-2-0-2-2-2-------
A-0---0-0-0-0-0-0---0-0-0-0-0-0-0-2---2-2-2-2-2-2---2-2-2-2-2-2-2-------
E---------------------------------0---0-0-0-0-0-0---0-0-0-0-0-0-0-------

  Dm                              G

e-1---x-1-1---1-1---1-1---1-1-1-1-3---3-3-3---3-3-----------------------
B-3---x-3-3---3-3---3-3---3-3-3-3-3---3-3-3---3-3-----------------------
G-2---x-2-2---2-2---2-2---2-2-2-2-0---0-0-0---0-0---------2-0-----------
D-0---x-0-0---0-0---0-0---0-0-0-0-0---0-0-0---0-0-----0-2-----2-0-------
A---------------------------------2---2-2-2---2-2---3-------------------
E---------------------------------3---3-3-3---3-3-----------------------


Verse 2

e-0---0-0-0-0-0-0---0-0-0-0-0-0-0-0---0-0-0-0-0-0---0-0-0-0-0-0-0-------
B-1---1-1-1-1-1-1---1-1-1-1-1-1-1-0---0-0-0-0-0-0---0-0-0-0-0-0-0-------
G-2---2-2-2-2-2-2---2-2-2-2-2-2-2-0---0-0-0-0-0-0---0-0-0-0-0-0-0-------
D-2---2-2-0-2-2-2---2-2-2-0-2-2-2-2---2-2-0-2-2-2---2-2-2-0-2-2-2-------
A-0---0-0-0-0-0-0---0-0-0-0-0-0-0-2---2-2-2-2-2-2---2-2-2-2-2-2-2-------
E---------------------------------0---0-0-0-0-0-0---0-0-0-0-0-0-0-------


e-0---0-0-0-0-0-0---0-0-0-0-0-0-0-0---0-0-0-0-0-0---0-0-0-0-0-0-0-------
B-1---1-1-1-1-1-1---1-1-1-1-1-1-1-0---0-0-0-0-0-0---0-0-0-0-0-0-0-------
G-2---2-2-2-2-2-2---2-2-2-2-2-2-2-0---0-0-0-0-0-0---0-0-0-0-0-0-0-------
D-2---2-2-0-2-2-2---2-2-2-0-2-2-2-2---2-2-0-2-2-2---2-2-2-0-2-2-2-------
A-0---0-0-0-0-0-0---0-0-0-0-0-0-0-2---2-2-2-2-2-2---2-2-2-2-2-2-2-------
E---------------------------------0---0-0-0-0-0-0---0-0-0-0-0-0-0-------


e-0---0-0-0-0-0-0---0-0-0-0-0-0-0-0---0-0-0-0-0-0---0-0-0-0-0-0-0-------
B-1---1-1-1-1-1-1---1-1-1-1-1-1-1-0---0-0-0-0-0-0---0-0-0-0-0-0-0-------
G-2---2-2-2-2-2-2---2-2-2-2-2-2-2-0---0-0-0-0-0-0---0-0-0-0-0-0-0-------
D-2---2-2-0-2-2-2---2-2-2-0-2-2-2-2---2-2-0-2-2-2---2-2-2-0-2-2-2-------
A-0---0-0-0-0-0-0---0-0-0-0-0-0-0-2---2-2-2-2-2-2---2-2-2-2-2-2-2-------
E---------------------------------0---0-0-0-0-0-0---0-0-0-0-0-0-0-------


e-1---x-1-1---1-1---1-1---1-1-1-1-3---3-3-3---3-3---3-3-3---------------
B-3---x-3-3---3-3---3-3---3-3-3-3-3---3-3-3---3-3---3-3-3---------------
G-2---x-2-2---2-2---2-2---2-2-2-2-0---0-0-0---0-0---0-0-0---------------
D-0---x-0-0---0-0---0-0---0-0-0-0-0---0-0-0---0-0---0-0-0---------------
A---------------------------------2---2-2-2---2-2---2-2-2---------------
E---------------------------------3---3-3-3---3-3---3-3-3---------------


Chorus ( ~ intro )

          F                               Am

e---0-----1---x-1-1-1-1-1---1-1-1---0-----0---x-0-0-0---0---0-0-0-------
B-3---3---1---x-1-1-1-1-1---1-1-1-3---3---1---x-1-1-1---1---1-1-1-------
G-------0-2---x-2-2-0-0-2---2-2-2-------0-2---x-2-2-2---2---2-2-2-------
D---------3---x-3-3-3-3-3---3-3-3---------2---x-2-2-0---2---2-2-2-------
A---------3---x-3-3-3-3-3---3-3-3---------0---x-0-0-0---0---0-0-0-------
E-----------------------------------------------------------------------

          F                               Am            G

e---0-----1---x-1-1-1-1-1---1-1-1---0-----0---0---0-0-x-3-3-------------
B-3---3---1---x-1-1-1-1-1---1-1-1-3---3---1---1---1-1-x-3-3-------------
G-------0-2---x-2-2-0-0-2---2-2-2-------0-2---2---2-2-x-0-0-------2-0---
D---------3---x-3-3-3-3-3---3-3-3---------2---2---2-2-x-0-0---0-2----2-0
A---------3---x-3-3-3-3-3---3-3-3---------0---0---0-0-x-2-2-3-----------
E-------------------------------------------------------3-3-------------

Verses again

Chorus

Bridge

e-0-0-0-0-0-0-0-0-0-0-0-----------0-0-0-0-0-0-0-0-0-0-0-----------------
B-5-5-5-3-3-3-3-3-1-1-1-----------5-5-5-3-3-3-3-3-1-1-1-----------------
G-----------------------2-2-2-2-2-----------------------2-2-2-2-2-------
D-----------------------------------------------------------------------
A-----------------------------------------------------------------------
E-----------------------------------------------------------------------


e-0-0-0-0-0-0-0-0-0-0-0-----------0-0-0-0-0-0---------------------------
B-5-5-5-3-3-3-3-3-1-1-1-----------5-5-5-3-3-3-1-------------------------
G-----------------------2-2-2-2-2---------------2-2-------2-0-----------
D-----------------------------------------------------0-2-----2-0-------
A---------------------------------------------------3-------------------
E-----------------------------------------------------------------------


Verse again

Chorus 2x

 ... and ... The End

e-0-0-0-0-0-0-0-0-0-0-0-0-0-0-0-0-0-0-0-0-0-0-0-0-0-0-0-0-0-0-0-0-------
B-5-5-5-5-5-5-5-5-5-5-5-5-5-5-5-5-5-5-5-5-5-5-5-5-5-5-5-5-5-5-5-5-------
G-----------------------------------------------------------------------
D-----------------------------------------------------------------------
A-----------------------------------------------------------------------
E-----------------------------------------------------------------------


e-0-0-0-0-0-0-0-0-0-0-0-0-0-0-0-0-0-0-0-0-0-0-0-0-----------------------
B-5-5-5-5-5-5-5-5-5-5-5-5-5-5-5-5-5-5-5-5-5-5-5-5-5-3-1---1h3-1---1-----
G-------------------------------------------------------2-------2-----2-
D-----------------------------------------------------------------------
A-----------------------------------------------------------------------
E-----------------------------------------------------------------------