20130621

THE ROLLING STONES CAROL TAB


The Rolling Stones - Carol guitar cover played by happyhotstar.
Standard tuning, bridge pick-ups and some overdrive.
See the TAB under the video.



THE ROLLING STONES CAROL TAB

GP5 + GP6 + PDF >> 

Intro

e---------5-5-5-5-5-----------------------5-5-5-5-5-5-5-5-5-------------
B-----5-7-5-5-5-5-5---5-7-5-5-5-5-5---5-7-5-5-5-5-5-5-5-5-5-7(8)(7)~~~~-
G---6---------------6-----5-5-5-5-5-6-----------------------7(8)(7)~~~~-
D-----------------------------------------------------------------------
A-----------------------------------------------------------------------
E-----------------------------------------------------------------------


Chorus

e-----------------------------------------------------------------------
B-----------------------------------------------------------------------
G-----------------------------------------------------------------------
D---7-7-9-7-7-7-9-7-7-7-9-7-7-7-9-7-------------------------------------
A---5-5-5-5-5-5-5-5-5-5-5-5-5-5-5-5--7-7-9-7-7-7-9-7-7-7-9-7-7-7-9-7----
E------------------------------------5-5-5-5-5-5-5-5-5-5-5-5-5-5-5-5----
    x x x x x x x x x x x x x x x x  x x x x x x x x x x x x x x x x

e------------------------------------------5------5---------5-----5\----
B------------------------------------------5-7.---5---7-----5-----5\----
G--------------------------------------------7.-------7-5h6---5h6-------
D---9-9-11-9-12-9-11-9-9-9-11-9-9-9-11-9--------------------------------
A---7-7-7--7-7--7-7--7-7-7-7--7-7-7-7--7--------------------------------
E-----------------------------------------------------------------------
    x x x  x x  x x  x x x x  x x x x  x



Verse

e-----------------------------------------------5-----5-----5\----------
B---------------------------------------5-------------------5\----------
G----------------------------------/6-----7-5h6---5h6---5h6-------------
D-----------------------------------------------------------------------
A---7-7-9-7-7-7-9-7-7-7-9-7-7-------------------------------------------
E---5-5-5-5-5-5-5-5-5-5-5-5-5-------------------------------------------
    x x x x x x x x x x x x x

e-----------------------------------------------------------------------
B-----------------------------------------------------------------------
G-----------------------------------------------------------------------
D-----------------------------------------------------------------------
A---7-7-9-7-7-7-9-7-7-7-9-7-7-7-----------------------------------------
E---5-5-5-5-5-5-5-5-5-5-5-5-5-5-----------------------------------------
    x x x x x x x x x x x x x x

e-----------------------------------------------------------------------
B---5------5-5------5------5--------------------------------------------
G---7(9)-----7(9)---7(9)---7(9)---(9)7-5----------5-7-------------------
D----------------------------------------7-7~---7-----------------------
A-----------------------------------------------------------------------
E-----------------------------------------------------------------------




DOWNLOAD THIS TAB IN GUITAR PRO



  • click 'Free Download'
  • add your e-mail address
  • you will get an e-mail with your download links (in a few seconds)
  • download the Guitar Pro 6 tab + GP5 + PDF for free
  • and that's all ...


Guitar Pro: a complete workshop for guitarists at an affordable price