20130621

THE ROLLING STONES LET IT ROCK TAB AND COVER


Brilliant guitar cover of Let It Rock (The Rolling Stones) played by happyhotstar.
He is using a cool Fender Stratocaster.
See the TAB under the video.



THE ROLLING STONES LET IT ROCK TAB

GP5 + GP6 + PDF >>

Intro

e----------5-5-5-5-5-5-5-5-5--------------------------------------------
B------5-7-5-5-5-5-5-5-5-5-5-8-7-5--------------------------------------
G-/6-------------------------------5h6----------------------------------
D--------------------------------------7-\------------------------------
A-----------------------------------------------------------------------
E-----------------------------------------------------------------------


Verse  (palm muted)

e-----------------------------------------------------------------------
B-----------------------------------------------------------------------
G-----------------------------------------------------------------------
D-2-2-4-2-2-2-4-2-2-2-4-2-2-2-4-2--2-2-4-2-2-----2-2-2-4-2-5-2-4-2------
A-0-0-0-0-0-0-0-0-0-0-0-0-0-0-0-0--0-0-0-0-0-3h4---0-0-0-0-0-0-0-0------
E-----------------------------------------------------------------------



e-----------------------------------------------------------------------
B-----------------------------------------------------------------------
G-----------------------------------------------------------------------
D-7-7-9-7-10-7-9-7-10-7-9-7---------2-2-4-2-2-2-4-2-2-2-4-2-2-2-4-2-----
A-5-5-5-5-5--5-5-5-5--5-5-5---------0-0-0-0-0-0-0-0-0-0-0-0-0-0-0-0-----
E-----------------------------------------------------------------------


e-----------------------------------------------------------------------
B-----------------------------------------------------------------------
G-----------------------------------------------------------------------
D-9-9-11-9-12-9-11-9-9-9-11-9-9-9-11-9--2-2-4-2-2-2-4-2-2-2-4-2---------
A-7-7-7--7-7--7-7--7-7-7-7--7-7-7-7--7--0-0-0-0-0-0-0-0-0-0-0-0-0-------
E-----------------------------------------------------------------------


e-----------------------------------------------------------------------
B-5/7-------7\5------------5/7---5/7---7\5------------------------------
G-----------------------------------------------------------------------
D-5/7-------7\5------------5/7---5/7---7\5------------------------------
A-----------------------------------------------------------------------
E-----------------------------------------------------------------------


Solo

e-----------------------------------------------------------------------
B-------10.---12-10----10-12(13)---(13)-(13)(12)-10----10---------------
G-/11---------------11------------------------------11------------------
D-----------------------------------------------------------------------
A-----------------------------------------------------------------------
E-----------------------------------------------------------------------


e-----------------------------------------------------------------------
B-12-12(13).-12(13).-12(13).-12(13).-12-10------------------------------
G------------------------------------------11---------------------------
D-----------------------------------------------------------------------
A-----------------------------------------------------------------------
E-----------------------------------------------------------------------


e----------12----------12----------12-----------------------------------
B-12(14)------12(14)------12(14)------12(14)(12)-10----10----10---------
G---------------------------------------------------11----11------------
D-----------------------------------------------------------------------
A-----------------------------------------------------------------------
E-----------------------------------------------------------------------



DOWNLOAD THE COMPLETE TAB HERE





  • click "Buy Now" and send $6  (or "Add to Cart" if you want to buy more tabs)
  • add your e-mail address
  • you will get a confirmation e-mail with your download links (in a few seconds)
  • download the full Guitar Pro 6 tab + GP5 + PDF
  • then start to learn the full song - that's all ...

IF YOU DIDN'T GET YOUR DOWNLOAD LINK, PLEASE CONTACT US HERE >>

SEND YOUR GUITAR TAB REQUEST HERE >>
MORE ON GUITAR TABS A-Z >>

Guitar Pro: a complete workshop for guitarists at an affordable price