20130627

THE ROLLING STONES LITTLE QUEENIE TAB AND COVER


The Rolling Stones - Little Queenie played by Happyhotstar.
Great guitar cover with a nice Fender Stratocaster
See the TAB under the video.



THE ROLLING STONES LITTLE QUEENIE TAB

GP5 + GP6 + PDF >>

Intro

e-----------------------------------------------------------------------
B-----------------------------------------------------------------------
G-----------------------------------------------------------------------
D-2---2-4---2---4-2---------2---4-2---2-4---2---4-2-----4---2---4-------
A-0---0-0---0---0-0---0-3-4-0-0-0-0---0-0-0-0-0-0-0---0-0-0-0-0-0-0-----
E-----------------------------------------------------------------------
        x   x   x     x     x   x       x   x   x       x   x   x

e-----------------------------------------------------------------------
B-----------------------------------------------------------------------
G-----------------------------------------------------------------------
D-2---4---2---4---2---4---2---4---2---4---2---4---2---4---2---4---------
A-0-0-0-0-0-0-0-0-0-0-0-0-0-0-0-0-0-0-0-0-0-0-0-0-0-0-0-0-0-0-0-0-------
E-----------------------------------------------------------------------
  x   x   x   x   x   x   x   x   x   x   x   x   x   x   x   x 



e-----------------------------------------------------------------------
B-----------------------------------------------------------------------
G-----------------------------------------------------------------------
D-2---4---2---4---2---4---2---4---2---4---2---4-------4---5---6---------
A-0-0-0-0-0-0-0-0-0-0-0-0-0-0-0-0-0-0-0-0-0-0-0-0-0---2---3---4---------
E-----------------------------------------------------------------------
  x   x   x   x   x   x   x   x   x   x   x   x   




Verse

e-----------------------------------5-----5-----------------------------
B-----------------------------------5-7.--5---7.------------------------
G-------------------------------------7.------7.------------------------
D-7---9---7---9---7---9---7---9-------------------2---4---2---4---------
A-5---5---5---5---5-5-5---5---5-------------------0-0-0-0-0-0-0-0-------
E-----------------------------------------------------------------------
  x   x   x   x   x   x   x   x                   x   x x x   x x

e-----------------------------------------------------------------------
B-----------------------------------------------------------------------
G-----------------------------------------------------------------------
D-9---11-9-12-9-11-9---9-------9-9-11-9-2---4-2-2---4-2-----2-----2-----
A-7-7-7--7-7--7-7--7-7-7-10-11-7-7-7--7-0-0-0-0-0-0-0-0-3h4---3h4---3h4-
E-----------------------------------------------------------------------
  x   x  x x  x x  x   x x  x  x   x  x x   x x x   x x

e-----------------------------------------------------------------------
B-----------------------------------------------------------------------
G-----------------------------------2-----2-----2---2-----2-------------
D-2-2-----2-------7-------7---9-7-2-2-4-2-2-----2-2-2-----2-------------
A-0-0-3h4---3h4-0-5-5-8-9-5-5-5-5-0---0-0---3h4---0---3h4---3h4-0-------
E-----------------------------------------------------------------------
  x x             x       x   x x x   x x         x

e-----------------------------------------------------------------------
B-----------------------------------------------------------------------
G------------------------------------2-----2-----2-----2-----2----------
D-7---9---10---9---7---9---7---9---2-2-4--------------------------------
A-5-5-5-5-5--5-5-5-5-5-5-5-5-5-5-0-0---0-0---3-4---3-4---3-4---3-4------
E-----------------------------------------------------------------------
  x   x   x    x   x   x   x   x   x   x

e-----------------------------------------------------------------------
B-----------------------------------------------------------------------
G----------------------------------------2-----2---------2-----2--------
D-9---11---12---11---9---11---9---11-----2-4.--2---4.----2-4.--2---4.---
A-7-7-7--7-7--7-7--7-7-7-7--7-7-7-7--7-x---------------x----------------
E-----------------------------------------------------------------------
  x   x    x    x    x   x    x   x

e-----------------------------------------------------------------------
B-----------------------------------------------------------------------
G-----------------------------------------------------------------------
D---2---------------2-4.--5.--4.----2-4.--5.--4.--5.--4.--2.--4.--------
A-x-0-x---x---x---x-0-0.--0.--0.--x-0-0.--0.--0.--0.--0.--0.--0.--------
E-----------------------------------------------------------------------


e-----------------------------------------------------------------------
B-----------------------------------------------------------------------
G-----------------------------------------------------------------------
D---7-9.--10.--9.----7-9.--10.--9.----2-4.--5.--4.----2-4.--5.--4.------
A-x-5-5.--5.---5.--x-5-5.--5.---5.--x-0-0.--0.--0.--x-0-0.--0.--0.------
E-----------------------------------------------------------------------


e-----------------------------------------------------------------------
B-----------------------------------------------------------------------
G-----------------------------------------------2-----2---2-------------
D---9-11.--12.--11-9-9-9-------9-9-11---2---4---2---4-2---2-4---2---4-2-
A-x-7-7.---7.---7--7-7-7-10-11-7-7-7--0-0-0-0-0-0-0-0-------0-0-0-0-0-0-
E-----------------------------------------------------------------------
                     x                  x   x   x   x       x   x   x x




Chorus

e-5-----5-----5\---------------5------5-----5---------5-----5-----------
B-5-----5-----5\---------------5------5-7'--5---7.----5-7'--5---7.------
G------------------------7-5h6----------7'------7.------7'------7.------
D-----------------------------------------------------------------------
A-----------------------------------------------------------------------
E-----------------------------------------------------------------------


e-------------------------------------5-----5---5-----5-----5-----------
B-5-----5-----5-----------------------5-----5-7-5-----5-7'--5---7.------
G-5-----5-----5----------------5\-------7'----7---------7'------7.------
D------------------------7-5h7------------------------------------------
A-----------------------------------------------------------------------
E-----------------------------------------------------------------------


e-5-----5.----5-------------5\-----5-------5---------5-5\---------------
B-5-----5.----5-------7-----5\-----5-7-5---5-----5---5-5\---------------
G---------------------7-5h6----------7-5h6-------5h6--------------------
D-----------------------------------------------------------------------
A-----------------------------------------------------------------------
E-----------------------------------------------------------------------




DOWNLOAD THIS TAB IN GUITAR PRO



  • click 'Free Download'
  • add your e-mail address
  • you will get an e-mail with your download links (in a few seconds)
  • download the Guitar Pro 6 tab + GP5 + PDF for free
  • and that's all ...


Guitar Pro: a complete workshop for guitarists at an affordable price