20130604

TRAVIS TRITT HERE'S A QUARTER TAB (CALL SOMEONE WHO CARES)


There is a cool country solo in Here's a Quarter (Call Someone Who Cares)
The video shows only the first solo but the TAB covers the complete solo with chords.



TRAVIS TRITT HERE'S A QUARTER CALL SOMEONE WHO CARES TAB

PDF >>
 
Telecaster solo

e-----------------------------------------------------------------------
B-----------3---------------3-------------------------------------------
G-----0-----2(4)---(2)(4)---(4)(2)p0-----0.-----------------------------
D-0h2-----2--------------------------2----------------------------------
A-----------------------------------------------------------------------
E-----------------------------------------------------------------------


e----------------0------0-----------------------------------------------
B---3--------------1------x---------------------------------------------
G------------3--------3-----3'---------------------0-2(4)(2)-0----------
D-3------1/2---2---------------/5~-------------0h2----------------------
A-----------------------------------------------------------------------
E-----------------------------------------------------------------------



e-------------------------------------------/7~---6~---5.---------------
B-----3---(7)(5)-3~------(7)(5)p3---3~----------------------------------
G-2/4---x-------------------------4---------/7~---6~---5.---------------
D-----------------------------------------------------------------------
A-----------------------------------------------------------------------
E-----------------------------------------------------------------------


e---3-----3.---3--------------------------------------------------------
B---3p0---3.---3--------------------------------------------------------
G-0-0---0--------0------------------------------------------------------
D-----------------------------------------------------------------------
A-----------------------------------------------------------------------
E-----------------------------------------------------------------------


Stratocaster solo

e-15--------15----------------------------------------------------------
B-13(15).---13(15)---------------15--------14--------13---------13------
G--------------------------------14(16).---13(15).---12(14).---(14)(12)-
D-----------------------------------------------------------------------
A-----------------------------------------------------------------------
E-----------------------------------------------------------------------


e-----------------------------------------------------------------------
B-8-------------8-------------------------------------------------------
G-7(9)---------(9)(7)---------------------0-----3'--0-------------------
D-----------------------------------0---3-----0-------3'---3'-0---------
A-----------------------------------------------------------------------
E-----------------------------------------------------------------------


e-----------------------------------------------------------------------
B-----------------------------------------------------------------------
G--------------------------------0--------------------------------------
D-----0-----------------------------------------------------------------
A-3-----3'---1-------------1-2-3----------------------------------------
E--------------3---------3----------------------------------------------


Chords

Verse & Solo

  G               C       G                       D

e-3-------3-------3-------3-------3-------3-------2-------2-------------
B-3-------3-------1-------3-------3-------3-------3-------3-------------
G-0-------0-------0-------0-------0-------0-------2-------2-------------
D-0-------0-------2-------0-------0-------0-------0-------0-------------
A-2-------2-------3-------2-------2-------2-----------------------------
E-3-------3---------------3-------3-------3-----------------------------

  G               C       G               D       G

e-3-------3-------3-------3-------3-------2-------3-------3-------------
B-3-------3-------1-------3-------3-------3-------3-------3-------------
G-0-------0-------0-------0-------0-------2-------0-------0-------------
D-0-------0-------2-------0-------0-------0-------0-------0-------------
A-2-------2-------3-------2-------2---------------2-------2-------------
E-3-------3---------------3-------3---------------3-------3-------------


Chorus

  C               G                               D

e-3-------3-------3-------3-------3-------3-------2-------2-------------
B-1-------1-------3-------3-------3-------3-------3-------3-------------
G-0-------0-------0-------0-------0-------0-------2-------2-------------
D-2-------2-------0-------0-------0-------0-------0-------0-------------
A-3-------3-------2-------2-------2-------2-----------------------------
E-----------------3-------3-------3-------3-----------------------------

  G               C       G               D       G

e-3-------3-------3-------3-------3-------2-------3-------3-------------
B-3-------3-------1-------3-------3-------3-------3-------3-------------
G-0-------0-------0-------0-------0-------2-------0-------0-------------
D-0-------0-------2-------0-------0-------0-------0-------0-------------
A-2-------2-------3-------2-------2---------------2-------2-------------
E-3-------3---------------3-------3---------------3-------3-------------


Last Chorus

  C               G                               D

e-3-------3-------3-------3-------3-------3-------2-------2-------------
B-1-------1-------3-------3-------3-------3-------3-------3-------------
G-0-------0-------0-------0-------0-------0-------2-------2-------------
D-2-------2-------0-------0-------0-------0-------0-------0-------------
A-3-------3-------2-------2-------2-------2-----------------------------
E-----------------3-------3-------3-------3-----------------------------

  G               C       G               D       G       C

e-3-------3-------3-------3-------3-------2-------3-------3-------------
B-3-------3-------1-------3-------3-------3-------3-------1-------------
G-0-------0-------0-------0-------0-------2-------0-------0-------------
D-0-------0-------2-------0-------0-------0-------0-------2-------------
A-2-------2-------3-------2-------2---------------2-------3-------------
E-3-------3---------------3-------3---------------3---------------------

  G       D       C                       G

e-3-------2-------3-------3-------3-------3-----------------------------
B-3-------3-------1-------1-------1-------3-----------------------------
G-0-------2-------0-------0-------0-------0-----------------------------
D-0-------0-------2-------2-------2-------0-----------------------------
A-2---------------3-------3-------3-------2-----------------------------
E-3---------------------------------------3-----------------------------


Strumming Pattern: 

down      down   up-down   up
down      down   up-down   up