20130708

DEEP BLUE SOMETHING BREAKFAST AT TIFFANY'S TAB

Deep Blue Something - Breakfast at Tiffany's guitar solos played fast and slow here. In the original song they use more effects like some delay and chorus, these make the solo sound much more complete and exciting.
See the TAB of the solos and the chords.



DEEP BLUE SOMETHING BREAKFAST AT TIFFANY'S TAB

PDF >>

Solo at 1:01

e-----------------------------------------------------------------------
B-----------------------------------------------------------------------
G-----------------------------------------------------------------------
D-5-5-5---4---2h4-0-----------------------------------------------------
A-----------------------------------------------------------------------
E-----------------------------------------------------------------------


e-----------------------------------------------------------------------
B-----------------------------------------------------------------------
G-----------------------------------------------------------------------
D-------0-----------2-------0-------------------------------------------
A-2-----------4---------------0-----------------------------------------
E-----------------------------------------------------------------------



Solo 2 at 2:55

e-----------------------------------------------------------------------
B-----------------------------------------------------------------------
G-----------------------------------------------------------------------
D-5-5-5---4---2h4-0-----------------------------------------------------
A-----------------------------------------------------------------------
E-----------------------------------------------------------------------


e-----------------------------------------------------------------------
B-----------------------------------------------------------------------
G-----------------------------------------------------------------------
D-------0-----------2-------0---------------------------------------2/--
A-2-----------4---------------0-------------------2-2-2-------5-4-------
E---------------------------------------------------------3-------------


e-----------------------------------------------------------------------
B-----------------------------------------------------------------------
G-12-12-12---11---9h11--------------------------------------------------
D----------------------12-----------------------------------------------
A-----------------------------------------------------------------------
E-----------------------------------------------------------------------


e-----------------------------------------------------------------------
B-----------------------------------------------------------------------
G----------------------9-----------------------------------0------------
D-9-----12------11--------------12-----------------9-9-9-------12---11--
A----------------------------------12-----------------------------------
E-----------------------------------------------------------------------


Solo 3 at 3:46

e-----------------------------------------------------------------------
B-----------------------------------------------------------------------
G-12-12-12---11---9h11--------------------------------------------------
D----------------------12-----------------------------------------------
A-----------------------------------------------------------------------
E-----------------------------------------------------------------------


e-----------------------------------------------------------------------
B-----------------------------------------------------------------------
G----------------------9----------------------------------0-------------
D-9-----12---9-11--------------12-----------------9-9-9--------12---11--
A---------------------------------12------------------------------------
E-----------------------------------------------------------------------


e-----------------------------------------------------------------------
B-----------------------------------------------------------------------
G-12-12-12---11---9h11--------------------------------------------------
D----------------------12-----------------------------------------------
A-----------------------------------------------------------------------
E-----------------------------------------------------------------------


e-----------------------------------------------------------------------
B-----------------------------------------------------------------------
G----------------------9----------------------------------0-------------
D-9-----12---9-11--------------12-----------------9-9-9--------12---11--
A---------------------------------12------------------------------------
E-----------------------------------------------------------------------


Chords

Intro / verse / solo

e-2-----2---2-0-----2---2-3-2-2-2-3-----3---3-0-----0---0-0-0-0-0-------
B-3-----3---3-3-----3---3-3-3-3-3-3-----3---3-2-----2---2-3-2-2-2-------
G-2-----2---2-2-----2---2-2-2-2-2-0-----0---0-2-----2---2-2-2-2-2-------
D-0-----0---0-0-----0---0-0-0-0-0-0-----0---0-2-----2---2-2-2-2-2-------
A---------------------------------2-----2---2-0-----0---0-0-0-0-0-------
E---------------------------------3-----3---3---------------------------


Chorus

e-2---2-------2-----2-2---2---2-2-0---0---0-0-3-----3-3---3---3-3-------
B-3---3-------3-----3-3---3---3-3-2---2---2-2-3-----3-3---3---3-3-------
G-2---2-------2-----2-2---2---2-2-2---2---2-2-0-----0-0---0---0-0-------
D-0---0-------0-----0-0---0---0-0-2---2---2-2-0-----0-0---0---0-0-------
A-0---0-------0-----0-0---0---0-0-0---0---0-0-2-----2-2---2---2-2-------
E---------------------------------------------3-----3-3---3---3-3-------



Strumming Pattern: 

Verse:       down    up   up-down   up   up-down-up-down-up
                  down    up   up-down   up   up-down-up-down-up

Chorus:    down  down   down    up-down    down    down-up
                  down  down   down    up-down    down    down-up