20130708

JEAN FRANCOIS MAURICE MONACO TAB (28 DEGREES A L'OMBRE)


There is an unforgettable guitar solo in Jean Francois Maurice - Monaco.
TAB helps below.



JEAN FRANCOIS MAURICE MONACO TAB

PDF >>

e-----------------------------------------------------------------------
B-10(12)---------(12)---(12)--------------------------------------------
G-----------------------------------------------------------------------
D-----------------------------------------------------------------------
A-----------------------------------------------------------------------
E-----------------------------------------------------------------------


e-8---8h10---8---7h8p7--------------------------------------------------
B----------------------10---8---p7---8---------8---8--------------------
G-----------------------------------------------------------------------
D-----------------------------------------------------------------------
A-----------------------------------------------------------------------
E-----------------------------------------------------------------------


e-----------------------------------------------------------------------
B-12(13)---------(13)---(13)--------------------------------------------
G-----------------------------------------------------------------------
D-----------------------------------------------------------------------
A-----------------------------------------------------------------------
E-----------------------------------------------------------------------



e-10---12---10----------------------------------------------------------
B----------------13---12---13---12---10---------------------------------
G-----------------------------------------------------------------------
D-----------------------------------------------------------------------
A-----------------------------------------------------------------------
E-----------------------------------------------------------------------


e-----------------------------------------------------------------------
B-13(15)---------13(15)---13(15)~~--------------------------------------
G-----------------------------------------------------------------------
D-----------------------------------------------------------------------
A-----------------------------------------------------------------------
E-----------------------------------------------------------------------


e-----------------------------------------------------------------------
B-13h15p13-12---13---15---13---12-\-10---8---------8---8----------------
G-----------------------------------------------------------------------
D-----------------------------------------------------------------------
A-----------------------------------------------------------------------
E-----------------------------------------------------------------------


e-----------------------------------------------------------------------
B-12(13).---12(13).---12(13).---12(13)~~~-------------------------------
G-----------------------------------------------------------------------
D-----------------------------------------------------------------------
A-----------------------------------------------------------------------
E-----------------------------------------------------------------------


e-10---12---10--------10---12---14/15---14---------12h14p12-------------
B----------------13-----------------------------------------15------15~-
G-----------------------------------------------------------------------
D-----------------------------------------------------------------------
A-----------------------------------------------------------------------
E-----------------------------------------------------------------------


Chords

  G            Em           Am           D

e-3------------0------------0------------2------------------------------
B-0------------0------------1------------3------------------------------
G-0------------0------------2------------2------------------------------
D-0------------2------------2------------0------------------------------
A-2------------2------------0-------------------------------------------
E-3------------0--------------------------------------------------------

  Bm           Em           C      Am    D

e-2------------0------------0------0-----2------------------------------
B-3------------0------------1------1-----3------------------------------
G-4------------0------------0------2-----2------------------------------
D-4------------2------------2------2-----0------------------------------
A-2------------2------------3------0------------------------------------
E--------------0--------------------------------------------------------
 


Strumming pattern:

down   down-up-down   up   down   up  down   down-up   2x