20130724

JOHN MAYER SLOW DANCING IN A BURNING ROOM SOLO TAB (LIVE IN L.A.)

John Mayer - Slow Dancing In A Burning Room live in Los Angeles. You'll see the TAB of the main solo riff played by Robbie McIntosh and John Mayer's first (short one) and second guitar solo. All these solos are awesome and really worth learning. Have fun guys like we did ...        


JOHN MAYER SLOW DANCING IN A BURNING ROOM SOLO TAB


Robbie McIntosh plays this riff many times throughout the song

e-12.---14h16---(16)~~~-----------14h16---14.---12---11.----------------
B-14.---16/17---(17)~~~-----------16/17---16.---14---12.----------------
G-----------------------------------------------------------------------
D-----------------------------------------------------------------------
A-----------------------------------------------------------------------
E-----------------------------------------------------------------------


e-12---------12.--------------------------------------------------------
B-12h14~-----12.---12~--------------------------------------------------
G------------------13~--------------------------------------------------
D-----------------------------------------------------------------------
A-----------------------------------------------------------------------
E-----------------------------------------------------------------------



e-12.---14h16---(16)~~~-----------14h16---14.---12---11.----------------
B-14.---16/17---(17)~~~-----------16/17---16.---14---12.----------------
G-----------------------------------------------------------------------
D-----------------------------------------------------------------------
A-----------------------------------------------------------------------
E-----------------------------------------------------------------------


e-----------------------------------------------------------------------
B-12~-----9.----9~------------------------------------------------------
G-13~-----11.---9~------------------------------------------------------
D-----------------------------------------------------------------------
A-----------------------------------------------------------------------
E-----------------------------------------------------------------------


SOLO 1

e-----------------------------------------------------------------------
B-9h12.---14-(16)(14)~----\---9-(12)(9)~--------------------------------
G-----------------------------------------------------------------------
D-----------------------------------------------------------------------
A-----------------------------------------------------------------------
E-----------------------------------------------------------------------


e-----------------------------------------------------------------------
B-12-------12-----------------------------------------------------------
G-11(13)-----(13)(11)--p9-(13)(11)--p9----------------------------------
D-----------------------------------------------------------------------
A--------------------------------------/11~-----------------------------
E-----------------------------------------------------------------------


e-----------9.---12'-9---12'---9---12(14)-12~---------------------------
B-9---12'--------------9---------9--------------------------------------
G-----------------------------------------------------------------------
D-----------------------------------------------------------------------
A-----------------------------------------------------------------------
E-----------------------------------------------------------------------


e-9---------------------------------------------------------------------
B---12-9.---------------------------------------------------------------
G-----------11(13)(11)p9------11(13)(11)-9-11~-----9-11.----------------
D------------------------11---------------------------------------------
A-----------------------------------------------------------------------
E-----------------------------------------------------------------------


e-----------------------------------------------------------------------
B-12/14---\12/14---\12~~------------------------------------------------
G-11/13---\11/13---\11~~----------13\11---p9-9~-------------------------
D-----------------------------------------------------------------------
A---------------------------------------------------11-\\\--------------
E-----------------------------------------------------------------------


SOLO 2

e------------------------------------------------9---------------9------
B------------12(14)~----------------12(14)~--------12-9--------9--------
G-(13)(11)p9-------------(13)(11)p9---------------------11(13)----------
D-----------------------------------------------------------------------
A-----------------------------------------------------------------------
E-----------------------------------------------------------------------


e-----------------------------------------------------------------------
B-----------------------------------------------------------------------
G-12\11-9-(13)(11)-9----------------------------------------------------
D--------------------11-9-----------------------------------------------
A-------------------------11\9-7-11\9~----------------------------------
E-----------------------------------------------------------------------


e--------------------------9-11-11~---9-------11~---9-------12~---9-----
B---------------9-12(14)---------------12-9.--x------12-9.--x------12-9.
G--------------9------------------------------x-------------x-----------
D-------9--h11----------------------------------------------------------
A-/11-------------------------------------------------------------------
E-----------------------------------------------------------------------


e-12/14---12.--14(16)---(14)-12~---12~-----14.---14(16)-------(14)p12---
B-x---------------------------------------------------------------------
G-x---------------------------------------------------------------------
D-----------------------------------------------------------------------
A-----------------------------------------------------------------------
E-----------------------------------------------------------------------


e-----------------------------------------------------------------------
B-14(16)------(14)-12~-----12--------------12-14-14(16).-14(17)-----(14)
G-------------------------------13.-----13------------------------------
D-----------------------------------------------------------------------
A-----------------------------------------------------------------------
E-----------------------------------------------------------------------


e-----------------------------------------------------------------------
B-12.--14.--12h14p12----------------------------------------------------
G--------------------13.-13(14)-----13~----11--13-13(14)-----(13)p11\9~-
D-----------------------------------------------------------------------
A-----------------------------------------------------------------------
E-----------------------------------------------------------------------


e-----------------------------------------------------------------------
B----------------------------------------------12~---14.---14/16---17.--
G-11-9-11(13)(11)~~----9---------------9-11/13--------------------------
D-----------------------11-9--\\---/11----------------------------------
A-----------------------------------------------------------------------
E-----------------------------------------------------------------------


e----------------------------------------------19(21)~---------19~------
B-19(21)--------19(21)--------19(21)-----19-17--------------------------
G-----------------------------------------------------------------------
D-----------------------------------------------------------------------
A-----------------------------------------------------------------------
E-----------------------------------------------------------------------


e-17~----------------------------19(21)~----------19~-----------17-17---
B-------------19(21)(19)p17.--------------------------------------------
G-----------------------------------------------------------------------
D-----------------------------------------------------------------------
A-----------------------------------------------------------------------
E-----------------------------------------------------------------------


e--------------------------------------19(21)~----------19~-------------
B-19(21)-19(21)-------19(21)(19)-17.------------------------------------
G-----------------------------------------------------------------------
D-----------------------------------------------------------------------
A-----------------------------------------------------------------------
E-----------------------------------------------------------------------


e-17--------------------------------------------------------------------
B----19(21)------(19)-17-19-17-19(21)---------(19)-17~---17~---17---\\--
G-----------------------------------------------------------------------
D-----------------------------------------------------------------------
A-----------------------------------------------------------------------
E-----------------------------------------------------------------------


e--------14(16)---14(16)---\\-------14/16~-----\14~-----12~-------------
B-/14.------------------------------------------------------------------
G-----------------------------------------------------------------------
D-----------------------------------------------------------------------
A-----------------------------------------------------------------------
E-----------------------------------------------------------------------


e-------------------------14/16~-----\14~-----12.-----------------------
B-14(16)-----14~---p12.-----------------------------14(16)-----(14)~----
G-----------------------------------------------------------------------
D-----------------------------------------------------------------------
A-----------------------------------------------------------------------
E-----------------------------------------------------------------------


e-----------------------------------------------------------------------
B-12h14p12----12---h14.-------------------------------------------------
G----------13-----------------------------------------------------------
D-----------------------------------------------------------------------
A-----------------------------------------------------------------------
E-----------------------------------------------------------------------


e-14/16~-----\14~-----12.-----------------------------------------------
B---------------------------14(16)---14~---12h14p12------12.------------
G---------------------------------------------------13------------------
D-----------------------------------------------------------------------
A-----------------------------------------------------------------------
E-----------------------------------------------------------------------


e-----------------------------------------------------------------------
B-14(17)--------14(16)-----(14)-12---12~~-----------\\\-----------------
G-----------------------------------------------------------------------
D-----------------------------------------------------------------------
A-----------------------------------------------------------------------
E-----------------------------------------------------------------------


The End with 2 guitars


John
e-----------------------------------------------------------------------
B-14.---16-(17)-~~~~----------14-16-16(17)~-----16~-----14~-----12.-----
G-----------------------------------------------------------------------
D-----------------------------------------------------------------------
A-----------------------------------------------------------------------
E-----------------------------------------------------------------------

Robbie (2nd guitar)
e-12.---14-(16)-~~~-----------------14(16)~-----14~-----12~-----11.-----
B-----------------------------------------------------------------------
G-----------------------------------------------------------------------
D-----------------------------------------------------------------------
A-----------------------------------------------------------------------
E-----------------------------------------------------------------------

John
e-----------------------------------------------------------------------
B-12/14~-----12.---9~---------------------------------------------------
G-----------------------------------------------------------------------
D-----------------------------------------------------------------------
A-----------------------------------------------------------------------
E-----------------------------------------------------------------------

Robbie
e-11(12)~----11.---7~---------------------------------------------------
B-----------------------------------------------------------------------
G-----------------------------------------------------------------------
D-----------------------------------------------------------------------
A-----------------------------------------------------------------------
E-----------------------------------------------------------------------

John
e-----------------------------------------------------------------------
B-14.---16-(17)-(17)~~~-------------16(17)~-----16.-----14~-----12.-----
G-----------------------------------------------------------------------
D-----------------------------------------------------------------------
A-----------------------------------------------------------------------
E-----------------------------------------------------------------------

Robbie
e-12.---14-(16)-(16)~~~-------------14(16)~-----14.-----12~-----11.-----
B-----------------------------------------------------------------------
G-----------------------------------------------------------------------
D-----------------------------------------------------------------------
A-----------------------------------------------------------------------
E-----------------------------------------------------------------------

John
e-----------------------------------------------------------------------
B-7/9~-----7.----5~-----------------------------------------------------
G-----------------------------------------------------------------------
D-----------------------------------------------------------------------
A-----------------------------------------------------------------------
E-----------------------------------------------------------------------

Robbie
e-----------------------------------------------------------------------
B-12~------14.---/9~------\---------------------------------------------
G-----------------------------------------------------------------------
D-----------------------------------------------------------------------
A-----------------------------------------------------------------------
E-----------------------------------------------------------------------


John
e-----------------------------------------------------------------------
B-14.---16-(17)-(17)~~~-------------16(17)~-----16~-----14~-----12.-----
G-----------------------------------------------------------------------
D-----------------------------------------------------------------------
A-----------------------------------------------------------------------
E-----------------------------------------------------------------------

Robbie
e-12.---14-(16)-(16)~~~--17-14(16)~-----14(16)~-----14~-----12~-----11.-
B-----------------------------------------------------------------------
G-----------------------------------------------------------------------
D-----------------------------------------------------------------------
A-----------------------------------------------------------------------
E-----------------------------------------------------------------------


John
e-----------------------------------------------------------------------
B-12h14~-----12.--\9~---------------------------------------------------
G-----------------------------------------------------------------------
D-----------------------------------------------------------------------
A-----------------------------------------------------------------------
E-----------------------------------------------------------------------

Robbie
e-11/12~-----11.---7~---------------------------------------------------
B-----------------------------------------------------------------------
G-----------------------------------------------------------------------
D-----------------------------------------------------------------------
A-----------------------------------------------------------------------
E-----------------------------------------------------------------------


John
e-----------------------------------------------------------------------
B-14.---16-(17)-(17)~~~-------------16(17)~-----16~-----14~-----12.-----
G-----------------------------------------------------------------------
D-----------------------------------------------------------------------
A-----------------------------------------------------------------------
E-----------------------------------------------------------------------

Robbie
e-12.---14-(16)-(16)~~~-------------14(16)~-----14~-----12~-----11.-----
B-----------------------------------------------------------------------
G-----------------------------------------------------------------------
D-----------------------------------------------------------------------
A-----------------------------------------------------------------------
E-----------------------------------------------------------------------

John
e-----------------------------------------------------------------------
B-/9~--------\7~---------5h7p5h7p5h7/9---/12---\9---7h9p7-5h7p5\4h5/7\4~
G-----------------------------------------------------------------------
D-----------------------------------------------------------------------
A-----------------------------------------------------------------------
E-----------------------------------------------------------------------

Robbie
e-----------------------------------------------------------------------
B-12~---------14.-----12~-------\9~-------------------------------------
G-----------------------------------------------------------------------
D-----------------------------------------------------------------------
A-----------------------------------------------------------------------
E-----------------------------------------------------------------------

John
e-----------------------------------------------------------------------
B-----------------------------------------------------------------------
G-4-----\3/4\3\1~~~~----------------------------------------------------
D-----------------------------------------------------------------------
A-----------------------------------------------------------------------
E-----------------------------------------------------------------------