20130717

JOSÉ FELICIANO ZORBA THE GREEK TAB

José Feliciano plays Zorba the Greek with a classical guitar. There are some bass and drums too. That's called real 'guitar playing': extremely fast, nice melodies and a lot of happyness from a person who actually can't see. TAB helps to learn that song below.



JOSÉ FELICIANO ZORBA THE GREEK TAB

PDF >>

Intro

e-6-7-------0---------6---9-7-6-7-9-7-6-7-9-7-6-7-7-7----------0--------
B-8-9-------0---------8---9-9-8-9-9-9-8-9-9-9-8-9-9-9----------0--------
G-----------1--------------------------------------------------1--------
D-----------2--------------------------------------------------2--------
A-----------2--------------------------------------------------2--------
E-----------0--------------------------------------------------0--------

Part 1

e-6---7.---7---7.---7---7.---7---7.---7---7.---7---7.-------------------
B-8---9.---9---9.---9---9.---9---9.---9---9.---9---9.-------------------
G-----------------------------------------------------------------------
D-----------------------------------------------------------------------
A-----------------------------------------------------------------------
E-----------------------------------------------------------------------



e-7h9p7-6---7---9-7-9-7-9-7---------------------------------------------
B-9-----8---9---9-9-9-9-9-9---------------------------------------------
G-----------------------------------------------------------------------
D-----------------------------------------------------------------------
A-----------------------------------------------------------------------
E-----------------------------------------------------------------------


e-6---7.---7---7.---7---7.---7---7.---7---7.---7---7.-------------------
B-8---9.---9---9.---9---9.---9---9.---9---9.---9---9.-------------------
G-----------------------------------------------------------------------
D-----------------------------------------------------------------------
A-----------   slowly getting faster     -------------------------------
E-----------------------------------------------------------------------


e-7h9p7-6---7---9-7-9-7-------------------------------------------------
B-9-----8---9---9-9-9-9-------------------------------------------------
G-----------------------------------------------------------------------
D-----------------------------------------------------------------------
A-----------------------------------------------------------------------
E-----------------------------------------------------------------------


e-4---5.---5---5.---5---5.---5---5.---5---5.---5---5.-------------------
B-6---7.---7---7.---7---7.---7---7.---7---7.---7---7.-------------------
G-----------------------------------------------------------------------
D-----------------------------------------------------------------------
A-----------------------------------------------------------------------
E-----------------------------------------------------------------------


e-5h7p5-4---5---7-5-7-5-7-5---------------------------------------------
B-7-----6---7---7-7-7-7-7-7---------------------------------------------
G-----------------------------------------------------------------------
D-----------------------------------------------------------------------
A-----------------------------------------------------------------------
E-----------------------------------------------------------------------


e-4---5.---5---5.---5---5.---5---5.---5---5.---5---5.---5---5.---5---5.-
B-6---7.---7---7.---7---7.---7---7.---7---7.---7---7.---7---7.---7---7.-
G-----------------------------------------------------------------------
D-----------------------------------------------------------------------
A-----------------------------------------------------------------------
E-----------------------------------------------------------------------


e-6---7.---7---7.---7---7.---7---7.---7---7.---7---7.---7-9-6-7-9-7-9-7-
B-8---9.---9---9.---9---9.---9---9.---9---9.---9---9.---9-9-8-9-9-9-9-9-
G-----------------------------------------------------------------------
D-----------------------------------------------------------------------
A-----------------------------------------------------------------------
E-----------------------------------------------------------------------


e-6---7.---7---7.---7---7.---7---7.---7---7.---7---7.---7-9-6-7-9-7-9-7-
B-8---9.---9---9.---9---9.---9---9.---9---9.---9---9.---9-9-8-9-9-9-9-9-
G-----------------------------------------------------------------------
D-----------------------------------------------------------------------
A-----------------------------------------------------------------------
E-----------------------------------------------------------------------


e-4---5.---5---5.---5---5.---5---5.---5---5.---5---5.---5-7-4-5-7-5-7-5-
B-6---7.---7---7.---7---7.---7---7.---7---7.---7---7.---7-7-6-7-7-7-7-7-
G-----------------------------------------------------------------------
D-----------------------------------------------------------------------
A-----------------------------------------------------------------------
E-----------------------------------------------------------------------


e-----0-------0-------0-------0-------0-------0-------0-------0---------
B-----0-------0-------0-------0-------0-------0-------0-------0---------
G-----1-------1-------1-------1-------1-------1-------1-------1---------
D-----------------------------------------------------------------------
A---------2---------------2---------------2---------------2-------------
E-0---------------0---------------0---------------0---------------------


Part 2

e-----4---4---4---4---4-3-4-5-4-------4---4---4---4---4-3-4-5-4---------
B-----5---5---5---5-----------5-------5---5---5---5-----------5---------
G-----------------------------------------------------------------------
D-----------------------------------------------------------------------
A-----------------------------------------------------------------------
E-0-------------------------------0-------------------------------------


e------------------------------7--------------------------------7-------
B-----9---9---9---9---9-8-9-10-9-------9---9---9---9---9-8-9-10-9-------
G-----9---9---9---9--------------------9---9---9---9--------------------
D-----------------------------------------------------------------------
A-----------------------------------------------------------------------
E-0--------------------------------0------------------------------------


e-----9---------7---7------------7-------9---------7---7------------7---
B-----10---10---9---9---9-8-9-10-9-------10--------9---9---9-8-9-10-9---
G----------11---------------------------------11------------------------
D-----------------------------------------------------------------------
A-----------------------------------------------------------------------
E-0---------------------------------0-----------------------------------


e-----12---12---12---11--\--9--------7--7--9--------------------------7-
B-----14---14---14---12--\--10------10-10-10-----10-10---9-8-9-10-9---9-
G-----------------------------------------------------------------------
D-----------------------------------------------------------------------
A-----------------------------------------------------------------------
E-0---------------------------------------------------------------------


e---12-12---12---12---11--\--9--------7--7--9-----------------------7---
B-x-14-14---14---14---12--\--10------10-10-10-----10---9-8-9-10-9---9---
G-----------------------------------------------------------------------
D-----------------------------------------------------------------------
A-----------------------------------------------------------------------
E-----------------------------------------------------------------------


e-12-12-12---12-12-12-12-11-11-14-11--9--9-12--9-7-7-9-7-5-5-7-5-4-3-4-5
B-14-14-14---14-14-14-14-12-12-12-12-10-10-10-10-9-9-9-9-7-7-7-7-5-4-5-5
G-----------------------------------------------------------------------
D-----------------------------------------------------------------------
A-----------------------------------------------------------------------
E-----------------------------------------------------------------------


e-4~---4~---------12-12-12-12-12-12-11-11-11-11--9--9--9--9-7-7-7-7-----
B-5~---5~---------14-14-14-14-14-14-12-12-12-12-10-10-10-10-9-9-9-9-----
G-----------------------------------------------------------------------
D-----------------------------------------------------------------------
A-----------------------------------------------------------------------
E-----------------------------------------------------------------------


e-5-5-5-5-----0-------0-------0-------0---------------------------------
B-7-7-7-7-----0-------0-------0-------0---------------------------------
G-------------1-------1-------1-------1---------------------------------
D-------------2-------2-------2-------2---------------------------------
A-------------2---2---2-------2---2---2---------------------------------
E---------0---------------0---------------------------------------------


Part 3 = Part 2

Part 4

e---------0.--------------0.--------------0.--------------0.------------
B---------0.--------------0.--------------0.--------------0.------------
0---------1.--------------1.--------------1.--------------1.------------
D---------2.--------------2.--------------2.--------------2.------------
A-----------------2-------------------------------2---------------------
E-0-------------------------------0-------------------------------------


e-9-7-6-7------0.--------------0.------5-4-3-4------0.-------------0.---
B-9-9-8-9------0.--------------0.------5-5-4-5------0.-------------0.---
G--------------1.--------------1.-------------------1.-------------1.---
D--------------2.--------------2.-------------------2.-------------2.---
A----------------------2------------------------------------2-----------
E-----------------------------------------------------------------------


e-9-7-6-7------0.--------------0.------5-4-3-4------0.-------------0.---
B-9-9-8-9------0.--------------0.------5-5-4-5------0.-------------0.---
G--------------1.--------------1.-------------------1.-------------1.---
D--------------2.--------------2.-------------------2.-------------2.---
A----------------------2------------------------------------2-----------
E-----------------------------------------------------------------------


e-4-5------2.--------------2.-------3-4-------0---------4---5.--4-2-0-4.
B-6-7------0.--------------0.-------4-5-------0-------------------------
G----------2.--------------2.-----------------1-------------------------
D----------1.--------------1.-------------------------------------------
A------------------2------------------------------2---------------------
E---------------------------------------------------0-------------------


e-2---2---------2---4.---2-0---2h4p2-0---------0.---------------0.------
B-0---0----------------------4-----------------0.---------------0.------
G-2---2----------------------------------------1.---------------1.------
D-1--------------------------------------------2.---------------2.------
A-2-----------2-----------------------------------------2------------2--
E---------2----------------------------0--------------------------------


e---------0.--------------0.--------------------------------------------
B---------0.--------------0.--------------------------------------------
G---------1.--------------1.--------------------------------------------
D---------2.--------------2.--------------------------------------------
A-----------------2-----------------------------------------------------
E-0---------------------------------------------------------------------


Part 5

e-6---7.---7---7.---7---7.---7---7.---7---7.---7---7.---7---7.---7------
B-8---9.---9---9.---9---9.---9---9.---9---9.---9---9.---9---9.---9------
G-----------------------------------------------------------------------
D-----------------------------------------------------------------------
A-----------------------------------------------------------------------
E-----------------------------------------------------------------------


e-7-9-7-6-6---7.---7---7.---7---7.---7---7.---7---7.---7---7.---7-------
B-9-9-9-8-8---9.---9---9.---9---9.---9---9.---9---9.---9---9.---9-------
G-----------------------------------------------------------------------
D-----------------------------------------------------------------------
A-----------------------------------------------------------------------
E-----------------------------------------------------------------------


e-6-7-9-7-9-7-4---5.---5---5.---5---5.---5---5.---5---5.---5---5.---5---
B-8-9-9-9-9-9-6---7.---7---7.---7---7.---7---7.---7---7.---7---7.---7---
G-----------------------------------------------------------------------
D-----------------------------------------------------------------------
A-----------------------------------------------------------------------
E-----------------------------------------------------------------------


e-4-5-7-5-7-5-4---5.---5---5.---5---5.---5---5.---5---5.---5---5.---5---
B-6-7-7-7-7-7-6---7.---7---7.---7---7.---7---7.---7---7.---7---7.---7---
G-----------------------------------------------------------------------
D-----------------------------------------------------------------------
A-----------------------------------------------------------------------
E-----------------------------------------------------------------------


e-5.---5---5.-----------------------------------------------------------
B-7.---7---7.-----------------------------------------------------------
G-----------------------------------------------------------------------
D-----------------------------------------------------------------------
A-----------------------------------------------------------------------
E-----------------------------------------------------------------------


e-6---7.---7---7.---7---7.---7---7.---7---7.---7---7.---7-9-6-7-9-7-9-7-
B-8---9.---9---9.---9---9.---9---9.---9---9.---9---9.---9-9-8-9-9-9-9-9-
G-----------------------------------------------------------------------
D-----------------------------------------------------------------------
A-----------------------------------------------------------------------
E-----------------------------------------------------------------------


e-6---7.---7---7.---7---7.---7---7.---7---7.---7---7.---7-9-6-7-9-7-9-7-
B-8---9.---9---9.---9---9.---9---9.---9---9.---9---9.---9-9-8-9-9-9-9-9-
G-----------------------------------------------------------------------
D-----------------------------------------------------------------------
A-----------------------------------------------------------------------
E-----------------------------------------------------------------------


e-4---5.---5---5.---5---5.---5---5.---5---5.---5---5.---5---4-5-7-5-7-5-
B-6---7.---7---7.---7---7.---7---7.---7---7.---7---7.---7---6-7-7-7-7-7-
G-----------------------------------------------------------------------
D-----------------------------------------------------------------------
A-----------------------------------------------------------------------
E-----------------------------------------------------------------------


e-----0-------0-------0-------0-------0-------0-------0-------0---------
B-----0-------0-------0-------0-------0-------0-------0-------0---------
G-----1-------1-------1-------1-------1-------1-------1-------1---------
D-----------------------------------------------------------------------
A---------2---------------2---------------2---------------2-------------
E-0---------------0---------------0---------------0---------------------


Part 6 = Part 2

THE END

e-----4---4---4---4-5-4-3-4-5-4-------4---4---4---4-5-4-3-4-5-4---------
B-----5---5---5---5-5-5-4-5-5-5-------5---5---5---5-5-5-4-5-5-5---------
G-----------------------------------------------------------------------
D-----------------------------------------------------------------------
A-----------------------------------------------------------------------
E-0-------------------------------0-------------------------------------


e-0~~~~~~~~~~~~~~~~~~~~~~~~~~~~~~~~~~~~~~~~~~~~~~~~~~~~~~~~~~-----------
B-0~~~~~~~~~~~~~~~~~~~~~~~~~~~~~~~~~~~~~~~~~~~~~~~~~~~~~~~~~~-----------
G-1~~~~~~~~~~~~~~~~~~~~~~~~~~~~~~~~~~~~~~~~~~~~~~~~~~~~~~~~~~-----------
D-2~~~~~~~~~~~~~~~~~~~~~~~~~~~~~~~~~~~~~~~~~~~~~~~~~~~~~~~~~~-----------
A-2~~~~~~~~~~~~~~~~~~~~~~~~~~~~~~~~~~~~~~~~~~~~~~~~~~~~~~~~~~-----------
E-0~~~~~~~~~~~~~~~~~~~~~~~~~~~~~~~~~~~~~~~~~~~~~~~~~~~~~~~~~~-----------