20130711

JUNG YONG HWA BANMAL SONG TAB (COVER BY SUNGMIN LEE)

Sungmin Lee plays Banmal song by Jung Yong Hwa. This is a cool acoustic fingerstyle arrangement. Alex Chung plays a cool solo at the end. Congratulation guys! Sungmin Lee uses the open G tuning (that is D G D G B D) Alex uses standard tuning. TAB helps below to learn to play this song like Sungmin Lee plays.


JUNG YONG HWA BANMAL SONG TAB

PDF >>

Part 1

d------5---7---7/9------------------------------------------------------
B------------------------------------8----8-----------------------------
G-/4-------5---------7---7---7------------7-----------------------------
D------------------------9---9------------9-----------------------------
G--------------0-------------0----------------0-------------------------
D-----------------------------------------------------------------------

                                
d-10/12-------------------------------5p4-------------------------------
B-------------------10--------------------------------------------------
G---------11-----------------11-----------------------------------------
D--------------12-------------------------------------------------------
G-----------------------------------------------------------------------
D-0-----------------0---------------------------------------------------
                                 


d-5-------------------2-----------2h4---2---4---4/9---------------------
B-----3---3---3-----------3-------------------------------7---/8\7------
G---------4---4---------------4-----------------------------------------
D-----------------------------------------------------------------------
G-----------------------------------------------------------------------
D-2---------------2-----------2---0-------------------0-----------------


d-------------------------------0-----------7---5-------4h5p4-2---0-----
B-5-----------5/7-------7---5-----------0-------------------------------
G-----5-----------------7-----------------------------------------------
D---------5-------------7-----------------------------------------------
G-5-----------------5---------------4-----------------------------------
D---------------------------------------------------2-------------------


d---------------------2-------------------7/9\7-----------12--\---------
B-1-----------1-----------1---------------------------------------------
G-----2---2---2---------------------------7/9\7-------------------------
D---------2---2-----------------------0---------------------------------
G-2---------------2-----------------------------------------------------
D---------------------------------0-------------------------------------


Part 2
                                         
d-----------------------------------------------------------------------
B---------0---0---0-------------------0-----------0---------------------
G---------0-----------2---0---2-----------------------2---0-------------
D-----0-----------------------------------------------------------------
G-0---------------0-----------------------------------------------------
D---------------------------------4-----------4---4---------------------


d----------------------------------------------------------0------------
B-----------------------------------------------------------------------
G-2-------2-------2---2---1---h2p1--------------------------------------
D-------------0--------------------2-------2---2------------------------
G-----------------------------------------------------------------------
D-----3---------------3----------------3-----------3--------------------


d-----------------------------------------------------------------------
B-----0---1-------0---1-----------0---1-----------0---1-----------0-----
G-2-----------2---------------2---------------2---------------2---------
D-----------------------------------------------------------------------
G---------2---------------2---------------1---------------1-------------
D-----------------------------------------------------------------------


d---------------------------------------------5---2h4-------2h4p2p0-----
B-1-------1---1---0-------1---0-----------------------------------------
G---------0---0-------------------2-------2---------------------------2-
D-----------------------------------------------------------------------
G-----0---------------0-------------------------------------------------
D-------------------------------------0---------------------------------


Part 3

d-----------------------------------------------------------------------
B---------0---0---0-------------------0---0---0---0---------------------
G-----0---0-----------2---0---2-----------2---2-------2---0-------------
D-----0-----------------------------------------------------------------
G-0---------------0-----------------------------------------------------
D---------------------------------4-----------4---4---------------------


d-----------------------------------------------------------------------
B-3-------3---3---1-------0-------------------------------0---0---------
G---------2---2---2-----------2---1-------1---1---2-------2---2---------
D---------------------------------2-------2---2---2---------------------
G-----------------------------------------------------------------------
D-----3---------------3---------------2---------------2-----------------


d-----------------------------------------------------------------------
B---0-1-------0---1-----------0---1-----------0---1-----------0---------
G-2-------2---------------2---------------2---------------2-------------
D-----------------------------------------------------------------------
G-----2---------------2---------------1---------------1-----------------
D-----------------------------------------------------------------------


d-----------------------------------------------<5>---------------------
B-1-------1---1---0-------1---3---3-------------<5>---------------------
G---------0---0---0-------0---0---0-------------------------------------
D-----------------------------------------<5>---------------------------
G-----0---------------0-------------------------------------------------
D-------------------------------------0---------------------------------


Part 4

d-----------------------------------------------------------------------
B-0---1---3-----------3---3---3---1---0---1-----------------------------
G-------------------0-----0---0---0---0---0-----------------------------
D-----------------0-----------------------------------------------------
G-------------0---------------0-----------------------------------------
D-----------------------------------------------------------------------


d---------2---------------2---4-----------------------------------------
B-3---3---3---3-------3---3---------------------------------------------
G-2---2-------2-------2-------------------------------------------------
D-----------------------------------------------------------------------
G-----------------------------------------------------------------------
D-0---------------0-----------------------------------------------------


d-----5---5---5---5---4---4-------5---5---4-------4---4-----------------
B-----3---3---3---3---3---3-------3---3---3-------3---3-----------------
G-----4---4---4---4---4---2-------2---2---2-------2---2-----------------
D-----------------------------------------------------------------------
G-----------------------------------------------------------------------
D-2---------------2-----------0---------------0-------------------------


d---0-----------------------------0-------------------------------------
B-0---5-----------5/7-----7---5-----------0-----------------------------
G-------------5---5/7-----7-------------------2---0-------0---h2--------
D---------5---------------7---------------------------------------------
G-----5-----------------5-------------4---------------------------------
D-----------------------------------------------------2-----------------


d----------------------------------0-----------5---2h4------------------
B-0-------1---1---1---1---0---h1---------------3-------------0---1------
G-------------2---2---2------------------------2------------------------
D------------------------------------------0----------------------------
G-----2---------------2-------------------------------------------------
D--------------------------------------0--------------------------------


d------------------------------------------2----------------7-----------
B-3-------3---3---3---1---p0---1---3---3-------3------------7---7-------
G---------0---0---0---0--------0---2---2----------------7---------------
D--------0-----------------------------------------/9-------------------
G------0----------0-----------------------------------------------------
D----------------------------------0------------------------------------


d-------------------------7---9-------9h10-----9-------7----------------
B-8-------------------8---8---------------------------------------------
G-----7-------7---------------------------------------------------------
D---------9---9---------------------------------------------------------
G-9---------------9-----------------------------------------------------
D---------------------------------0----------------0--------------------


d---0-------------------------------0-----------7---5-----------5-------
B-0---5-----------5/7-------7---5-----------0-------------------3---0---
G-------------5---5/7-------7-------------------------------4-----------
D---------5-----------------7-------------------------------------------
G-----5-------------------5-------------4-------------------------------
D-------------------------------------------------------2---------------


d-------------5-------5---5-----------------------5-------4-------4/5---
B---------5---5-------5---5---------------3-----------------------------
G-5-----------5-------5---5---------------2-----------------------------
D-----7-------7-------7---7-----------0---------------------------------
G-----------------------------------------------------------------------
D-7-----------7-------7---7---7---0-----------0-------------------------


d------------------------------------5-2h4-------------2h4p2------------
B-------------0----------------------------------------------3---\1-----
G---------0----------------------2--------------------------------------
D----------------------------0------------------------------------------
G-6----------------------6----------------------------------------------
D-----------------------------------------------------------------------


Part 5 ~ Part 3

d-----------------------------------------------------------------------
B---------0---0---0-------------------0---0---0---0---------------------
G-----0---0-----------2---0---2-----------2---2-------2---0-------------
D-----0-----------------------------------------------------------------
G-0---------------0-----------------------------------------------------
D---------------------------------4-----------4---4---------------------


d-----------------------------------------------------------------------
B-3-------3---3---1-------0-------------------------------0---0---------
G---------2---2---2-----------2---1-----------1---2-------2---2---------
D-------------------------------------------2---------------------------
G-----------------------------------------------------------------------
D-----3---------------3---------------2---2-----------2-----------------


d-----------------------------------------------------------------------
B---0-1-------0---1-----------0---1-----------0---1-----------0---------
G-2-------2---------------2---------------2---------------2-------------
D-----------------------------------------------------------------------
G-----2---------------2---------------1---------------1-----------------
D-----------------------------------------------------------------------


d-----------------------------------------------<7>---------------------
B-1-------1---1---0-------1---3---3-------------<7>---------------------
G---------0---0---0-------0---0---0-------------<7>---------------------
D-----------------------------------------<7>---------------------------
G-----0---------------0-------------------------------------------------
D-------------------------------------0---------------------------------


Part 6 ~ Part 4

d-----------------------------------------------------------------------
B-0---1---3-----------3---3---3---1---0---1-----------------------------
G-0---0---0---------0-----0---0---0---0---0-----------------------------
D-0---0---0-------0-----------------------------------------------------
G-------------0---------------0-----------------------------------------
D-----------------------------------------------------------------------


d---------2---------------2---4-----------------------------------------
B-3---3---3---3-------3---3---------------------------------------------
G-2---2-------2-------2-------------------------------------------------
D-----------------------------------------------------------------------
G-----------------------------------------------------------------------
D-0---------------0-----------------------------------------------------


d-----5---5---5---5---4---4-------5---5---4-------4---4-----------------
B-----3---3---3---3---3---3-------3---3---3-------3---3-----------------
G-----4---4---4---4---4---2-------2---2---2-------2---2-----------------
D-----------------------------------------------------------------------
G-----------------------------------------------------------------------
D-2---------------2-----------0---------------0-------------------------


d---0-----------------------------0-------------------------------------
B-0---5-----------5/7-----7---5-----------0-----------------------------
G-------------5---5/7-----7-------------------2---0-------0---h2--------
D---------5---------------7---------------------------------------------
G-----5-----------------5-------------4---------------------------------
D-----------------------------------------------------2-----------------


d----------------------------------0-----------5---4--------------------
B-0-------1---1---1---1---0---h1---------------3-------------0---h1-----
G-------------2---2---2------------------------2-------------0----------
D------------------------------------------0---0-------------0----------
G-----2---------------2------------------------0------------------------
D--------------------------------------0-------0------------------------


d------------------------------------------2----------------7-----------
B-3-------3---3---3---1---p0---1---3---3-------3------------7---7-------
G---------0---0---0---0--------0---2---2----------------7---------------
D--------0-----------------------------------------/9-------------------
G------0----------0-----------------------------------------------------
D----------------------------------0------------------------------------


d-----------------------------9-------9h10------9-------7---7.----------
B-8-----------8-------8---8---8-------8---------8-------8---8.----------
G-----7-------7-------7---7---------------------------------------------
D---------9---9---------------------------------------------------------
G-9-----------9---------------------------------------------------------
D---------------------------------0---------x-------0-------------------


d---0-------------------------------0-----------7---5-----------5-------
B-0---5-----------5/7-------7---5-----------0-------------------3---0---
G-------------5---5/7-------7-------------------------------4-----------
D---------5-----------------7-------------------------------------------
G-----5-------------------5-------------4-------------------------------
D-------------------------------------------------------2---------------


d-------------5-------5---5-----------------------5-------4-------4h5---
B---------5---5-------5---5---------------3-------3-------3-------------
G-5-----------5-------5---5---------------2-------2-------2-------------
D-----7-------7-------7---7-----------0-----------0-------0-------------
G-------------------------------------------------0---------------------
D-7-----------7-------7---7---7---0-----------0---0---------------------


SOLO (Alex Chung) by 2:30 - 2:50

e-----------------------------------------------14----------------------
B-----------------12---------7/8---8/10---10/12-------------------------
G-4/5---5/7---7/9-------------------------------------------------------
D-----------------------------------------------------------------------
A-----------------------------------------------------------------------
E-----------------------------------------------------------------------


e-14/15---15------------------------------12/14---14--------------------
B------------15---15-12---12-15/17-------------------15---15------------
G------------------------------------------------------------14~--------
D-----------------------------------------------------------------------
A-----------------------------------------------------------------------
E-----------------------------------------------------------------------


e-----------------------------------------------------------------------
B---------13-------15-------13h15p13------------------------------------
G-14h16------------------------------16---14---11h12-12/14-12~----------
D-----------------------------------------------------------------------
A-----------------------------------------------------------------------
E-----------------------------------------------------------------------


e-----------------------------------------------------------------------
B----------------------------------------12---h13-10-----/12--13--13/15-
G-11h12p11---------------12~-----11h12.---------------------------------
D----------14-12-10~----------------------------------------------------
A-----------------------------------------------------------------------
E-----------------------------------------------------------------------


 ... and Sungmin Lee again till the end

d-------------------------------------------2---------------2---4-------
B----------3---3---3---1---0---1.---3---3-------3-------3---------------
G---------0-------------------------2-----------------------------------
D--------0--------------------------0-----------------------------------
G-0-----0---------------------------------------------------------------
D-----------------------------------0---------------0-------------------


d-----5-------5---5---4---5-----------5---5---4---4---2---2-------------
B-----3-------3---3---3---3---3-------3---3---3---3---3---3-------------
G-----4-------4---4---4---4---2-------2---2---2---2---2---2-------------
D-----------------------------0-------0---0---0---0---0---0-------------
G-----------------------------------------------------------------------
D-2---------------------------------------------------------------------


d---0-----------------------------0-------------------------------------
B-0---5-------5---5/7-----7---5-----------0------------------------0----
G-------------5---5/7-----7-------------------2---0-------0---h2--------
D---------5---------------7---------------------------------------------
G-----5-----------------5-------------4---------------------------------
D-----------------------------------------------------2-----------------


d-----2---2---2---2---0---2----0-------5.---5-------5-------------------
B-----1---1---1---1---0---1----0-------3.---3-------3---0---h1----------
G-----2---2---2---2---2---2----0-------2.---2-------2---0---------------
D-----2---2---2---2---2---2------------0.---0-------0-------------------
G-2---2---2---2---2---2---2---------------------------------------------
D----------------------------------0------------------------------------


d------------------------------------------2----------------7-----------
B-3-------3---3---3---1---p0---1---3---3-------3----------------7-------
G-0-------0---0---0---0--------0---2---2----------------7---------------
D---------0------------------------0---------------/9-------------------
G---------0-------0-----------------------------------------------------
D----------------------------------0------------------------------------


d-----------------------------9-------9h10------9-------7---7.----------
B-8-----------8-------8-------8-------8---------8-------8---8.----------
G-----7-------7-----------7---------------------------------------------
D---------9---9---------------------------------------------------------
G-9-----------9---------------------------------------------------------
D---------------------------------0-----------------0-------------------


d---0-------------------------------0-------7p4---5-----------5---------
B-0---5-----------5/7-------7---5-----------------------------3---0-----
G-------------5---5/7-------7-----------------------------4-------------
D---------5-----------------7-------------------------------------------
G-----5-------------------5-------------4-------------------------------
D-----------------------------------------------------2-----------------


d-------------5-------5---5-----------------------5-------4-------4/5---
B---------5---5-------5---5-------------------3-------------------------
G-5-----------5-------5---5---------------2-----------------------------
D-----7-------7-------7---7-----------0---------------------------------
G-----------------------------------------------------------------------
D-7-----------7-------7---7---7---0-------------------------------------


d-----------------------------------------------------------------------
B------------------------------<12>------------------<7>----------------
G----------------------0------------------<12>---------------------<7>--
D--------------0--------------------------------------------------------
G------0----------------------------------------------------------------
D-----------------------------------------------------------------------