20130728

PINK PANTHER THEME TAB (GUITAR COVER BY CHIHAB EL KHACHAB)

Chichab El Khachab's guitar cover of the Pink Panther Theme song.  The only thing you'll need to play this song is an acoustic guitar and your fingers =D
TAB below helps to play that song like him.



PINK PANTHER THEME TAB

PDF >>

e-----------13---------13----------13------13---13---13---13---13-------
B----------12-------------12---------12-----12---12---12---12---12------
G---------15-----------------15--------15----15---15---15---15---15-----
D--------14---------------------14-------14---14---14---14---14---14----
A-----------------------------------------------------------------------
E-0---------------------------------------------------------------------


e-13---13---13------13--------------------------------------------------
B--12---12----12--------------------------------------------------------
G---15---15-----15------------------------------------------------------
D----14---14------14----------------------------------------------------
A-----------------------------------------------------------------------
E-----------------------------------------------------------------------



e-----------------------------------------------------------------------
B-----------------------------------------------------------------------
G-----------------------------------------------------------------------
D-6/7.--8/9--------------------------6/7.--8/9--------------------------
A-4/5.--6/7--------------------------4/5.--6/7--------------------------
E------------------7-------0-------------------------7-------0----------


e------------------2h3.--------------2h3.---8-7.----------7-6-----------
B-----------------------------4h5.-------------------8.-----------------
G-------8/9.---------------------------------------9--------------------
D-6/7.--8/9.------------------------------------------------------------
A-4/5.--6/7.---------2.----------------2.-----7.---7-6.---4-3-----------
E-------------------------------0.--------------------------------------


e-------------5p3-------------------------------------------------------
B-5---------------5p3-5---------5.--------------------------------------
G-------3-----------------3-----3.--------------------------------------
D---5-----------5-----------5---5.--------------------------------------
A-------------------------3---------------------------------------------
E---------3-------------------------------------------------------------


e------------------2h3.--------------2h3.---8-7.-----7.---12-11---------
B-----------------------------4h5.-----------------8--------------------
G-------8/9.------------------------------------------------------------
D-6/7.--8/9.------------------------------------------------------------
A-4/5.--6/7.---------2.----------------2.-----7.---7-6.---7--8----------
E-------------------------------0.--------------------------------------


e-----------------------------------x-----------------------------------
B-10--------------x-----------4-----x-----------------------------------
G---------8-------x-----------------x-----------------------------------
D----10-----------x-------------3---x-----------------------------------
A-----------------x-----------------x-----------------------------------
E-------------------------1---------x-----------------------------------


e------------------2h3.--------------2h3.---8-7.----------7-6-----------
B-----------------------------4h5.-------------------8.-----------------
G-------8/9.---------------------------------------9--------------------
D-6/7.--8/9.------------------------------------------------------------
A-4/5.--6/7.---------2.----------------2.-----7.---7-6.---4-3-----------
E-------------------------------0.--------------------------------------


e-------------5p3-------------------------------------------------------
B-5---------------5p3-5---------5.--------------------------------------
G-------3-----------------3-----3.--------------------------------------
D---5-----------5-----------5---5.--------------------------------------
A-------------------------3---------------------------------------------
E---------3-------------------------------------------------------------


e---------------10/12----10---------------------------------------------
B---------------------------12---10--------11p10---11p10---11p10---11p10
G-------8/9.------------------------12---9------------------------------
D-6/7.--8/9.------------------------------------------------------------
A-4/5.--6/7.------------------------------------------------------------
E------------------------------------------8---------------7------------


e-----------------------------7-----7-----7-7.--------------------------
B-8-----8---------------8-----8-----8-----8-8.--------------------------
G-9-9p7-9---9-----------9-----7-----7-----7-7.--------------------------
D-9-----9---------------9-----9-----9-----9-9.--------------------------
A-7-----------------7-----------7---------7-7.--------------------------
E-------------7-----------0---------------0-0.--------------------------


e-----3------------------------------------9-10.-13---------x-----------
B-6---3-------------------10--11----------------------------x-----------
G-----3-------------------9---------------------------------------------
D-------------------0------------0----------------------x---------------
A-------------------------8------------7---------10---------------------
E-3-----5-----6---------------------------------------------------------


e-7/8-6-----------------------------6h8p6.-5.-3-----0.------------------
B---------8-----8.---8~~~----\----8-------------------------------------
G---------------7.---7~~~----\------------------------------------------
D---------------8.---8~~~----\------5------4.-2-------------------------
A-----------7--------7~~~----\------------------------------------------
E-----------------------------------------------------------------------


e----9h11p9.-8.-6-------------------------------------------------------
B-11----------------8.-------6------------------------------------------
G----------------------------4-----------/7.-----7.-----7.--------------
D----8-------7.-5------------6------------------------------------------
A----------------------------5------------------------------------------
E-----------------------------------------------------------------------


e----------------------------3-----3-----3.-----------------------------
B----6.---6.---------------2-3-----3-----3.-----------------------------
G-/7----------------/7-5.--2-3-----3-----3.-----------------------------
D-----------------------------------------------------------------------
A------------------------------------5----------------------------------
E------------------------------3----------------------------------------


e-------5-6.---6-6p5--------------------------5~---6~---5~--------------
B-5-8----------------8-5---8.-----5~----8~-------------------8~---5~---\
G-----------------------------------------------------------------------
D-----------------------------------------------------------------------
A-----------------------------------------------------------------------
E-----------------------------------------------------------------------


e------------------------6-6---6.---5-5---5.----3.----------------------
B-/6---------------------8-8---8.---7-7---7.----3.----------------------
G------7~----------------6-6---6.---5-5---5.----3.----------------------
D------------------------8-8---8.---7-7---7.----5.----------------------
A------------------------6-6---6.---5-5---5.----5.---4.--5.-------------
E-----------------------------------------------3.------------6-5.---3.-


e-----------------------------------------------------------------------
B-----------------------------------------------------------------------
G-----------------------------------------------------------------------
D-6/7.--8/9--------------------------6/7.--8/9--------------------------
A-4/5.--6/7--------------------------4/5.--6/7--------------------------
E------------------7-------0-------------------------7-------0----------



e------------------2h3.--------------2h3.---8-7.----------7-6-----------
B-----------------------------4h5.-------------------8.-----------------
G-------8/9.---------------------------------------9--------------------
D-6/7.--8/9.------------------------------------------------------------
A-4/5.--6/7.---------2.----------------2.-----7.---7-6.---4-3-----------
E-------------------------------0.--------------------------------------


e-------------5p3-------------------------------------------------------
B-5---------------5p3-5---------5.--------------------------------------
G-------3-----------------3-----3.--------------------------------------
D---5-----------5-----------5---5.--------------------------------------
A-------------------------3---------------------------------------------
E---------3-------------------------------------------------------------


e------------------2h3.--------------2h3.---8-7.-----7.---12-11---------
B-----------------------------4h5.-----------------8--------------------
G-------8/9.------------------------------------------------------------
D-6/7.--8/9.------------------------------------------------------------
A-4/5.--6/7.---------2.----------------2.-----7.---7-6.---7--8----------
E-------------------------------0.--------------------------------------


e-----------------------------------x-----------------------------------
B-10--------------x-----------4-----x-----------------------------------
G---------8-------x-----------------x-----------------------------------
D----10-----------x-------------3---x-----------------------------------
A-----------------x-----------------x-----------------------------------
E-------------------------1---------x-----------------------------------


e------------------2h3.--------------2h3.---8-7.----------7-6-----------
B-----------------------------4h5.-------------------8.-----------------
G-------8/9.---------------------------------------9--------------------
D-6/7.--8/9.------------------------------------------------------------
A-4/5.--6/7.---------2.----------------2.-----7.---7-6.---4-3-----------
E-------------------------------0.--------------------------------------


e-------------5p3-------------------------------------------------------
B-5---------------5p3-5---------5.--------------------------------------
G-------3-----------------3-----3.--------------------------------------
D---5-----------5-----------5---5.--------------------------------------
A-------------------------3---------------------------------------------
E---------3-------------------------------------------------------------


e---------------10/12----10----------------6---------------6-6-6/8---6.-
B---------------------------12---10-----------------5-----5-------------
G-------8/9.------------------------12---9------------3--3--------------
D-6/7.--8/9.--------------------------------------------5---------------
A-4/5.--6/7.------------------------------------------------------------
E------------------------------------------3----------------------------


e-5---p3.---5---------5---3-3h5p3-----------2---------------------------
B---------------4---4---------------4-----------------------------------
G-----------------2-----------------------------------------------------
D-----------------------------------------------------------------------
A-----------2-----------------------------------------------------------
E-----------------------------------------------------------------------


e-0--------------------0-------0-------0-------0-------0-------0--------
B----------------7---7---7---7---7---7---7---7---7---7---7---7---7------
G------------------8-------8-------8-------8-------8-------8-------8----
D------------9----------------------------------------------------------
A-------10--------------------------------------------------------------
E-0---------------------------------------------------------------------


e----------0------------------------------------------------------------
B-7---------------------------------------------------------------------
G-----------------------------------------------------------------------
D-----------------------------------------------------------------------
A-----------------------------------------------------------------------
E-----------------------------------------------------------------------