20130801

ABANDONED VISIONS OF DEATH TAB

Visions Of Death by the german thrash metal band Abandoned. There are some cool "headbanger" riffs everyone can enjoy. TAB helps to learn those riffs under the video.
ATTENTION! The song is played in half-step down tuning !!!



ABANDONED VISIONS OF DEATH TAB

PDF >>

Intro

D#----------------------------------------------------------------------
A#----------------------------------------------------------------------
F#----------------------------------------------------------------------
C#----------------------------------------------------------------------
G#-------2.-------------------------------------------------------------
D#-3-2-1-0.-------------------------------------------------------------
   x x x  


D#----------------------------------------------------------------------
A#----------------------------------------------------------------------
F#----------------------------------------------------------------------
C#-----2-------2---4---5-4-1-2---2-----2-------2---4--------------------
G#-----------------------------------------------------------2----------
D#-0-0---0-0-0---0---0-------------0-0---0-0-0---0---0-3-2-1-0----------
   x x   x x x   x   x             x x   x x x   x   x x x x 



D#----------------------------------------------------------------------
A#----------------------------------------------------------------------
F#----------------------------------------------------------------------
C#-----2-------2---4---5-4-1-2---2-----2-------2---4--------------------
G#-----------------------------------------------------------2----------
D#-0-0---0-0-0---0---0-------------0-0---0-0-0---0---0-3-2-1-0----------
   x x   x x x   x   x             x x   x x x   x   x x x x


D#----------------------------------------------------------------------
A#----------------------------------------------------------------------
F#----------------------------------------------------------------------
C#-----2-------2---4---5-4-1-2---2-----2-------2---4---5-4-2------------
G#----------------------------------------------------------------------
D#-0-0---0-0-0---0---0-------------0-0---0-0-0---0---0------------------
   x x   x x x   x   x             x x   x x x   x   x 

(2nd guitar)

D#----------------------------------------------------------------------
A#----------------------------------------------------------------------
F#-----0-------0---2---4-2---0---0-----0-------0---2---4-2-0------------
C#-------------------------4--------------------------------------------
G#----------------------------------------------------------------------
D#----------------------------------------------------------------------


(both guitars)
D#----------------------------------------------------------------------
A#----------------------------------------------------------------------
F#----------------------------------------------------------------------
C#----------------------------------------------------------------------
G#-3---3-3-3-3-3-3-3-3-3-3-3-3-5-x-2---2-2-2-2-2-2-2-3-x-5-x-------2----
D#-3---3-3-3-3-3-3-3-3-3-3-3-3-5-x-2---2-2-2-2-2-2-2-3-x-5-x-3-2-1-0----
         x x   x x x   x   x             x x   x x x         x x x


D#----------------------------------------------------------------------
A#----------------------------------------------------------------------
F#----------------------------------------------------------------------
C#-----2-------2---4---5-4-1-2---2-----2-------2---4---5-4-2------------
G#----------------------------------------------------------------------
D#-0-0---0-0-0---0---0-------------0-0---0-0-0---0---0------------------
   x x   x x x   x   x             x x   x x x   x   x 

(2nd guitar)

D#----------------------------------------------------------------------
A#----------------------------------------------------------------------
F#-----0-------0---2---4-2---0---0-----0-------0---2---4-2-0------------
C#-------------------------4--------------------------------------------
G#----------------------------------------------------------------------
D#----------------------------------------------------------------------


(both guitars)
D#----------------------------------------------------------------------
A#----------------------------------------------------------------------
F#----------------------------------------------------------------------
C#----------------------------------------------------------------------
G#-3---3-3-3-3-3-3-3-3-3-3-3-3-5-x-2---2-2-2-2-2-2-2-3-x-5-x-------2----
D#-3---3-3-3-3-3-3-3-3-3-3-3-3-5-x-2---2-2-2-2-2-2-2-3-x-5-x-3-2-1-0----
         x x   x x x   x   x             x x   x x x         x x x


D#----------------------------------------------------------------------
A#----------------------------------------------------------------------
F#----------------------------------------------------------------------
C#-2---2-2-2---2-2-2---2-2-2---2-2-3---3-3-3---3-3-3-----3--------------
G#-2---2-2-2---2-2-2---2-2-2---2-2-3---3-3-3---3-3-3-2-----2---2--------
D#-0---0-0-0---0-0-0---0-0-0---0-0-1---1-1-1---1-1-1---1-----1---1------
       x x     x x     x x     x x     x x     x x x   x


D#----------------------------------------------------------------------
A#----------------------------------------------------------------------
F#----------------------------------------------------------------------
C#-2---2-2-2---2-2-2---2-2-2---2-2-3---3-3-3---3-3-3-----3--------------
G#-2---2-2-2---2-2-2---2-2-2---2-2-3---3-3-3---3-3-3-2-----2---2--------
D#-0---0-0-0---0-0-0---0-0-0---0-0-1---1-1-1---1-1-1---1-----1----------
       x x     x x     x x     x x     x x     x x x   x


D#----------------------------------------------------------------------
A#----------------------------------------------------------------------
F#----------------------------------------------------------------------
C#-2--------------------------------------------------------------------
G#-2--------------3-----5-----3-----------------------------------------
D#-0--------------3-----5-----3-----------------------------------------


Verse

D#----------------------------------------------------------------------
A#----------------------------------------------------------------------
F#----------------------------------------------------------------------
C#----------------------------------------------------------------------
G#-----2-----3-----2-----3-----2h3p2-----2-----3-----2-----3-----2h3p2--
D#-0-0---0-0---0-0---0-0---0-0-------0-0---0-0---0-0---0-0---0-0--------
   x x   x x   x x   x x   x x       x x   x x   x x   x x   x x


D#----------------------------------------------------------------------
A#----------------------------------------------------------------------
F#----------------------------------------------------------------------
C#-----4-----5-----4-----5-----4h5p4-----4-----5-----4---5--------------
G#-3-3---3-3---3-3---3-3---3-3-------2-2---2-2---2-2---2-----------2----
D#-----------------------------------------------------------3-2-1-0----
   x x   x x   x x   x x   x x       x x   x x   x x   x     x x x


D#----------------------------------------------------------------------
A#----------------------------------------------------------------------
F#----------------------------------------------------------------------
C#----------------------------------------------------------------------
G#-----2-----3-----2-----3-----2h3p2-----2-----3-----2-----3-----2h3p2--
D#---0---0-0---0-0---0-0---0-0-------0-0---0-0---0-0---0-0---0-0--------
     x   x x   x x   x x   x x       x x   x x   x x   x x   x x


D#----------------------------------------------------------------------
A#----------------------------------------------------------------------
F#----------------------------------------------------------------------
C#-----4-----5-----4-----5-----4h5p4-----4-----5-----4---5--------------
G#-3-3---3-3---3-3---3-3---3-3-------2-2---2-2---2-2---2----------------
D#-----------------------------------------------------------3-2-1------
   x x   x x   x x   x x   x x       x x   x x   x x   x     x x x


Bridge

D#----------------------------------------------------------------------
A#----------------------------------------------------------------------
F#----------------------------------------------------------------------
C#-3---3-3-3-3-3-3-3---------------2---2-2-2-2-2-2-2--------------------
G#-3---3-3-3-3-3-3-3-2h3-3-2-2h3-x-2---2-2-2-2-2-2-2-2h3-3---3-2-x------
D#-1---1-1-1-1-1-1-1---------------0---0-0-0-0-0-0-0-------0------------
         x x   x x x       x             x x   x x x       x x x

(second guitar)
D#----------------------------------------------------------------------
A#----------------------------------------------------------------------
F#----------------------------------------------------------------------
C#-3---3-3-3-5-5-5-5-7-7-7-7-9h10-x-2---2-2-2-2-5-5-5-5/7-7-7-5-2-x-----
G#----------------------------------------------------------------------
D#----------------------------------------------------------------------


D#----------------------------------------------------------------------
A#----------------------------------------------------------------------
F#----------------------------------------------------------------------
C#-3---3-3-3-3-3-3-3---------------2---2-2-2-2-2-2-2--------------------
G#-3---3-3-3-3-3-3-3-2h3-3-2-2h3-x-2---2-2-2-2-2-2-2-3-----5-----3---2--
D#-1---1-1-1-1-1-1-1---------------0---0-0-0-0-0-0-0-3-----5-----3---0--
         x x   x x x       x             x x   x x x

(second guitar)
D#----------------------------------------------------------------------
A#----------------------------------------------------------------------
F#----------------------------------------------------------------------
C#-3---3-3-3-5-5-5-5-7-7-7-7-9h10-x-------------------------------------
G#----------------------------------------------------------------------
D#----------------------------------------------------------------------



Chorus

D#----------------------------------------------------------------------
A#----------------------------------------------------------------------
F#----------------------------------------------------------------------
C#-----2-------2---4---5-4-1-2---2-----2-------2---4---5-4-2------------
G#----------------------------------------------------------------------
D#-0-0---0-0-0---0---0-------------0-0---0-0-0---0---0------------------
   x x   x x x   x   x             x x   x x x   x   x 

(2nd guitar)

D#----------------------------------------------------------------------
A#----------------------------------------------------------------------
F#-----0-------0---2---4-2---0---0-----0-------0---2---4-2-0------------
C#-------------------------4--------------------------------------------
G#----------------------------------------------------------------------
D#----------------------------------------------------------------------


(both guitars)
D#----------------------------------------------------------------------
A#----------------------------------------------------------------------
F#----------------------------------------------------------------------
C#----------------------------------------------------------------------
G#-3---3-3-3-3-3-3-3-3-3-3-3-3-5-x-2---2-2-2-2-2-2-2-3-x-5-x-------2----
D#-3---3-3-3-3-3-3-3-3-3-3-3-3-5-x-2---2-2-2-2-2-2-2-3-x-5-x-3-2-1-0----
         x x   x x x   x   x             x x   x x x         x x x


D#----------------------------------------------------------------------
A#----------------------------------------------------------------------
F#----------------------------------------------------------------------
C#-----2-------2---4---5-4-1-2---2-----2-------2---4---5-4-2------------
G#----------------------------------------------------------------------
D#-0-0---0-0-0---0---0-------------0-0---0-0-0---0---0------------------
   x x   x x x   x   x             x x   x x x   x   x 

(2nd guitar)

D#----------------------------------------------------------------------
A#----------------------------------------------------------------------
F#-----0-------0---2---4-2---0---0-----0-------0---2---4-2-0------------
C#-------------------------4--------------------------------------------
G#----------------------------------------------------------------------
D#----------------------------------------------------------------------


(both guitars)
D#----------------------------------------------------------------------
A#----------------------------------------------------------------------
F#----------------------------------------------------------------------
C#----------------------------------------------------------------------
G#-3---3-3-3-3-3-3-3-3-3-3-3-3-5-x-2---2-2-2-2-2-2-2-3-x-5-x-------2----
D#-3---3-3-3-3-3-3-3-3-3-3-3-3-5-x-2---2-2-2-2-2-2-2-3-x-5-x-3-2-1-0----
         x x   x x x   x   x             x x   x x x         x x x


again verse - bridge - chorus


Headbanger part :D

D#----------------------------------------------------------------------
A#----------------------------------------------------------------------
F#----------------------------------------------------------------------
C#----------------------------------------------------------------------
G#-7h8p7---10---8-----7h8p7---10---8------------------------------------
D#-------0----0---0-0-------0----0---0-0--------------------------------
         x    x   x x       x    x   x x

D#----------------------------------------------------------------------
A#----------------------------------------------------------------------
F#----------------------------------------------------------------------
C#----------------------------------------------------------------------
G#-7h8p7---10---8-----7h8p7---10---8------------------------------------
D#-------0----0---0-0-------0----0---0-0--------------------------------
         x    x   x x       x    x   x x

D#----------------------------------------------------------------------
A#----------------------------------------------------------------------
F#----------------------------------------------------------------------
C#----------------------------------------------------------------------
G#-7h8p7---10---8-----7h8p7---10---8------------------------------------
D#-------0----0---0-0-------0----0---0-0--------------------------------
         x    x   x x       x    x   x x

(second guitar)
D#----------------------------------------------------------------------
A#----------------------------------------------------------------------
F#----------------------------------------------------------------------
C#----------------------------------------------------------------------
G#-10h12p10---14---12-----10h12p10---14---12----------------------------
D#----------0----0----0-0----------0----0----0--------------------------
            x    x    x x          x    x    x

D#----------------------------------------------------------------------
A#----------------------------------------------------------------------
F#----------------------------------------------------------------------
C#----------------------------------------------------------------------
G#-7h8p7---10---8-----7h8p7---10---8------------------------------------
D#-------0----0---0-0-------0----0---0-0--------------------------------
         x    x   x x       x    x   x x

(second guitar)
D#----------------------------------------------------------------------
A#----------------------------------------------------------------------
F#----------------------------------------------------------------------
C#----------------------------------------------------------------------
G#-10h12p10---14---12-----10h12p10---14---12----------------------------
D#----------0----0----0-0----------0----0----0--------------------------
            x    x    x x          x    x    x

D#----------------------------------------------------------------------
A#----------------------------------------------------------------------
F#----------------------------------------------------------------------
C#----------------------------------------------------------------------
G#-7h8p7---10---8---7---8---5---7---3-----------------------------------
D#-------0----0---0---0---0---0---0-------------------------------------
         x    x   x   x   x   x   x

D#----------------------------------------------------------------------
A#----------------------------------------------------------------------
F#----------------------------------------------------------------------
C#----------------------------------------------------------------------
G#-7h8p7---10---8---7---8---5---7---3-----------------------------------
D#-------0----0---0---0---0---0---0-------------------------------------
         x    x   x   x   x   x   x

D#----------------------------------------------------------------------
A#----------------------------------------------------------------------
F#----------------------------------------------------------------------
C#----------------------------------------------------------------------
G#----------------------------------------------------------------------
D#-7h8p7-0-10-0-8-0-7-0-8-0-5-0-7-0-3-----------------------------------
         x    x   x   x   x   x   x

D#----------------------------------------------------------------------
A#----------------------------------------------------------------------
F#----------------------------------------------------------------------
C#----------------------------------------------------------------------
G#--------------------------3---3---3-----------------------------------
D#-7h8p7-0-10-0-8-0-7-0-8-0-1---1---1-----------------------------------
         x    x   x   x   x

D#----------------------------------------------------------------------
A#----------------------------------------------------------------------
F#----------------------------------------------------------------------
C#----------------------------------------------------------------------
G#-7h8p7---10---8---7---8---5---7---3-----------------------------------
D#-------0----0---0---0---0---0---0-------------------------------------
         x    x   x   x   x   x   x

(second guitar)
D#----------------------------------------------------------------------
A#----------------------------------------------------------------------
F#----------------------------------------------------------------------
C#----------------------------------------------------------------------
G#-10h12p10---14---12---10---12---9---10---7----------------------------
D#----------0----0----0----0----0---0----0------------------------------
            x    x    x    x    x   x    x

D#----------------------------------------------------------------------
A#----------------------------------------------------------------------
F#----------------------------------------------------------------------
C#----------------------------------------------------------------------
G#-7h8p7---10---8---7---8---5---7---3-----------------------------------
D#-------0----0---0---0---0---0---0-------------------------------------
         x    x   x   x   x   x   x

(second guitar)
D#----------------------------------------------------------------------
A#----------------------------------------------------------------------
F#----------------------------------------------------------------------
C#----------------------------------------------------------------------
G#-10h12p10---14---12---10---12---9---10---7----------------------------
D#----------0----0----0----0----0---0----0------------------------------
            x    x    x    x    x   x    x


D#----------------------------------------------------------------------
A#----------------------------------------------------------------------
F#----------------------------------------------------------------------
C#----------------------------------------------------------------------
G#----------------------------------------------------------------------
D#-7h8p7-0-10-0-8-0-7-0-8-0-5-0-7-0-3-----------------------------------
         x    x   x   x   x   x   x

(second guitar)
D#----------------------------------------------------------------------
A#----------------------------------------------------------------------
F#----------------------------------------------------------------------
C#----------------------------------------------------------------------
G#-5h7p5---9---7---5---7---3---5---2------------------------------------
D#-------0---0---0---0---0---0---0--------------------------------------
         x   x   x   x   x   x   x


D#----------------------------------------------------------------------
A#----------------------------------------------------------------------
F#----------------------------------------------------------------------
C#--------------------------10--10--10----------------------------------
G#--------------------------10--10--10----------------------------------
D#-7h8p7-0-10-0-8-0-7-0-8-0-8---8---8-----------------------------------
         x    x   x   x   x

(second guitar)
D#----------------------------------------------------------------------
A#----------------------------------------------------------------------
F#-------------------------5---5---5------------------------------------
C#-------------------------5---5---5------------------------------------
G#-5h7p5---9---7---5---7---3---3---3------------------------------------
D#-------0---0---0---0---0----------------------------------------------
         x   x   x   x   x  


SOLO

D#----------------------------------------------------------------------
A#----------------------------------------------------------------------
F#----------------------------------------------------------------------
C#----------------------------------------------------------------------
G#-----2-----3-----2-----3-----2h3p2-----2-----3-----2-----3-----2h3p2--
D#-1-1---1-1---1-1---1-1---1-1-------1-1---1-1---1-1---1-1---1-1--------
   x x   x x   x x   x x   x x       x x   x x   x x   x x   x x 

D#----------------------------------------------------------------------
A#----------------------------------------------------------------------
F#----------------------------------------------------------------------
C#----------------------------------------------------------------------
G#-----2-----3-----2-----3---5---3-----2-----3-----2-----5-----2--------
D#-0-0---0-0---0-0---0-0---0-3---1-0-0---0-0---0-0-0-----3-----0--------
   x x   x x   x x   x x   x       x x   x x   x x

D#----------------------------------------------------------------------
A#----------------------------------------------------------------------
F#----------------------------------------------------------------------
C#----------------------------------------------------------------------
G#-----2-----3-----2-----3-----2h3p2-----2-----3-----2-----3-----2h3p2--
D#-1-1---1-1---1-1---1-1---1-1-------1-1---1-1---1-1---1-1---1-1--------
   x x   x x   x x   x x   x x       x x   x x   x x   x x   x x

D#----------------------------------------------------------------------
A#----------------------------------------------------------------------
F#----------------------------------------------------------------------
C#----------------------------------------------------------------------
G#-----2-----3-----2-----3---5---3-----2-----3-----3-----5-----3---2----
D#-0-0---0-0---0-0---0-0---0-3---1-0-0---0-0---0-0-3-----5-----3---0----
   x x   x x   x x   x x   x       x x   x x   x x

Pre - chorus

D#----------------------------------------------------------------------
A#----------------------------------------------------------------------
F#----------------------------------------------------------------------
C#----------------------------------------------------------------------
G#-------2--------------------------------------------------------------
D#-3-2-1-0--------------------------------------------------------------
   x x x  


D#----------------------------------------------------------------------
A#----------------------------------------------------------------------
F#--------------------------(0)-(0)---(0)-------------------------------
C#-----2-------2---4---5-4-1-2---2-----2-------2---4--------------------
G#-----------------------------------------------------------2----------
D#-0-0---0-0-0---0---0-------------0-0---0-0-0---0---0-3-2-1-0----------
   x x   x x x   x   x             x x   x x x   x   x x x x


Chorus 2 x

The End

D#----------------------------------------------------------------------
A#----------------------------------------------------------------------
F#----------------------------------------------------------------------
C#-2---2-2-2---2-2-2---2-2-2---2-2-3---3-3-3---3-3-3-----3--------------
G#-2---2-2-2---2-2-2---2-2-2---2-2-3---3-3-3---3-3-3-2-----2---2--------
D#-0---0-0-0---0-0-0---0-0-0---0-0-1---1-1-1---1-1-1---1-----1---1------
       x x     x x     x x     x x     x x     x x x   x


D#----------------------------------------------------------------------
A#----------------------------------------------------------------------
F#----------------------------------------------------------------------
C#-2---2-2-2---2-2-2---2-2-2---2-2-3---3-3-3---3-3-3-----3--------------
G#-2---2-2-2---2-2-2---2-2-2---2-2-3---3-3-3---3-3-3-2-----2---2-2.-----
D#-0---0-0-0---0-0-0---0-0-0---0-0-1---1-1-1---1-1-1---1-----1---0.-----
       x x     x x     x x     x x     x x     x x x   x


D#----------------------------------------------------------------------
A#----------------------------------------------------------------------
F#----------------------------------------------------------------------
C#----------------------------------------------------------------------
G#-8\7---5-2------------------------------------------------------------
D#-6\5---3-0------------------------------------------------------------