20130815

ADELE SOMEONE LIKE YOU TAB (ACOUSTIC COVER BY IRENE CONTI)

Irene Conti plays and sings Adele - Someone Like You. Nice arrangement with a single acoustic guitar and it's also easy to learn to play (not to sing =D).
See the TAB of Irene's playing under the video.



ADELE SOMEONE LIKE YOU TAB

PDF >>

I heard that you....

e--------------------------------------­---------------------------------
B-----5-------5-------5-------5--------5-------5-------5-------5--------
G---6---6---6---6---6---6---6---6----6---6---6---6---6---6---6---6------
D--------------------------------------­---------------------------------
A--------------------------------------­---------------------------------
E-5-------5-------5-------5--------4--­-----4-------4-------4------------


e-----2-------2-------2-------­2--------2-------2-------2------­-2--------
B---2---2---2---2---2---2---2---2--------3-------3-------3-------3------
G------------------------------------2-------2-------2-------­2----------
D----------------------------------0-------0-------0-------0------------
A--------------------------------------­---------------------------------
E-2-------2-------2-------2----­-----------------------------------------



I hate to turn up out of the blue uninvited but I...

e-------------------------------------2-------2-------2----­--2----------
B-----0-------0-------2-------2­---------3-------3-------3--­----3--------
G---1---1---1---1---2---2---2--­2----2-------2-------2-------2-----------
D---------------------------------0-------0-------0-------0-------------
A--------------------------------------­---------------------------------
E-0-------0-------2-------2-----­----------------------------------------


CHORUS

e--------------------------------------­------------------2-------2------
B-----5-------5--------0-­------0--------2-------2----------3-------3----
G---6---6---6---6----1---1­---1---1----2---2---2---2----2-------2--------
D--------------------------------------­--------------0-------0----------
A--------------------------------------­---------------------------------
E-5-------5--------0-------0--------2-------2---------------------------


Nothing compares...

e--------------------------------------­---------------------------------
B-----0-------0-------0-------0-­------2-------2-------2-------2---------
G---1---1---1---1---1---1---1---1-­--2---2---2---2---2---2---2­---2-------
D--------------------------------------­---------------------------------
A--------------------------------------­---------------------------------
E-0-------0-------0-------0-----­--2-------2-------2------­-2-------------


Who would have known how...

e-----2-------2-------2-------2-----------------------------------------
B-------3-------3-------3-­------3------3-------3---­---------------------
G---2-------2-------2--­-----2--------4---4---4---4-­---------------------
D-0-------0-------0-----­--0---------------------------------------------
A----------------------------------2-------2-------­---------------------
E------------------------------------­-----------------------------------


this would taste...

e--------------------------------------­----------------------------­-----
B-----5-------5----------7--­-----------7--------------------------------
G---6---6---6---6-----------7­--------------7----------------------------
D---------------------7------------7------------------------------------
A-4-------4--------5-----------5----------------------------------------
E--------------------------------------­---------------------------------