20130816

AVICII WAKE ME UP TAB AND LESSON


There is a short video how to play Avicii - Wake Me Up on guitar. There is a verse part, a chorus and the solo. Put your CAPO on the 2nd fret and play the Am F C G and the E chords to get the real sound. See the TAB below.



AVICII WAKE ME UP TAB                                  

PDF >>

Intro / Chorus

  Bm              G               D               D       A

e-2---2---2-2-2-2-3---3---3-3-3-3-2---2---2-2-2-2-2---2-2-5---5-5-------
B-3---3---3-3-3-3-3---3---3-3-3-3-3---3---3-3-3-3-3---3-3-2---2-2-------
G-4---4---4-4-4-4-4---4---4-4-4-4-2---2---2-2-2-2-2---2-2-2---2-2-------
D-4---4---4-4-4-4-5---5---5-5-5-5-4---4---4-4-4-4-4---4-4-2---2-2-------
A-2---2---2-2-2-2-5---5---5-5-5-5-5---5---5-5-5-5-5---5-5-4---4-4-------
E-----------------3---3---3-3-3-3-------------------------5---5-5-------


  Bm              G               D               D       F#

e-2---2---2-2-2-2-3---3---3-3-3-3-2---2---2-2-2-2-2---2-2-2---2-2-------
B-3---3---3-3-3-3-3---3---3-3-3-3-3---3---3-3-3-3-3---3-3-2---2-2-------
G-4---4---4-4-4-4-4---4---4-4-4-4-2---2---2-2-2-2-2---2-2-3---3-3-------
D-4---4---4-4-4-4-5---5---5-5-5-5-4---4---4-4-4-4-4---4-4-4---4-4-------
A-2---2---2-2-2-2-5---5---5-5-5-5-5---5---5-5-5-5-5---5-5-4---4-4-------
E-----------------3---3---3-3-3-3-------------------------2---2-2-------


Verse

  Bm              G               D               D     

e-2---2---2-2-2-2-3---3---3-3-3-3-2---2---2-2-2-2-2---2---2-2-2-2-------
B-3---3---3-3-3-3-3---3---3-3-3-3-3---3---3-3-3-3-3---3---3-3-3-3-------
G-4---4---4-4-4-4-4---4---4-4-4-4-2---2---2-2-2-2-2---2---2-2-2-2-------
D-4---4---4-4-4-4-5---5---5-5-5-5-4---4---4-4-4-4-4---4---4-4-4-4-------
A-2---2---2-2-2-2-5---5---5-5-5-5-5---5---5-5-5-5-5---5---5-5-5-5-------
E-----------------3---3---3-3-3-3---------------------------------------


SOLO

e-----------------------------------------------------------------------
B---------------------------------3.------3-----3-5-3-5---5/7---3-------
G-4.------4-----2-4-7-4---4-2-4-2---------------------------------------
D-----------------------------------------------------------------------
A-----------------------------------------------------------------------
E-----------------------------------------------------------------------


Strumming pattern:

down   down    down-up-down-up
down   down    down-up-down-up
down   down    down-up-down-up
down   down-up-down   down-up