20130806

BOHEMIAN RHAPSODY TAB (FINGERSTYLE COVER BY EDGAR CRUZ)

Great fingerstyle arrangement of Queen's Bohemian Rhapsody.
The original video title says: 'Bohemian Rhapsody - for solo guitar'
See the TAB below.


BOHEMIAN RHAPSODY FINGERSTYLE TAB                                  

PDF >>

Part 1

e-5---5---5---5---5---5-----------5---5---5---5-----5-2-----------------
B-7---7---7---7---7---7-----------7---7---7---7-----7-4-----------------
G-9---9---9---9---9---9-----------8---8---9---8-----6-4-----------------
D-----------------------------------------------------------------------
A-----------------------------------------------------------------------
E-----------------------------------------------------------------------


e-4---4---4.--5-----------4-----------5---5---5---5.--------------------
B-5---5---5.--7-----------5-----------5---5---7---5.--7---5-------------
G-7---7---7.--7-----------7-----------6---6---7---6.--7---6-------------
D-----------------------------------------------------9---7-------------
A-----------------------------7---7---0---------------------------------
E-----------------------------------------------------------------------



e-----------------2---------------------------0-------------------------
B-2---2---2---2-------2-----------2---2---3---2-------2---/-------------
G-2-----------------------2---2---0-------4---0-------2---/-------------
D-4---------------------------4-----------5-----------------------------
A---------------------------------0-------------------------------------
E-2---------------------------------------------------------------------


e-------------5.-------10.-------10.----------------------------------9-
B-7~------7~------12--------10-----------------7---7---7---7------7-----
G-7~--7~----------12--------11-----------------7----------------------7-
D-0--------------------------------------------7------------------------
A-----------------------------------------------------------------------
E----------------------------------------------7------------------------


e-0---0---0h2---0-------0---2-4.-----6---6---5-\-----4---4---5-\--------
B-0-----------------3.--0------------6---6---5-\-----4---4---5-\--------
G-1----------------------------------7---7---6-\-----5---5---6-\--------
D-----------------------------------------------------------------------
A-----------------------------------------------------------------------
E-0---------------------------------------------------------------------


e-6---6---5-\-----4---4---5-\-------------------------------------------
B-6---6---5-\-----4---4---5-\-------------------------------------------
G-7---7---6-\-----5---5---6-\-------------------------------------------
D-----------------------------------------------------------------------
A-----------------------------------------------------------------------
E-----------------------------------------------------------------------


e-2---2---2---2.--0h2p0------5-------5---5---5---5.--4-------0---0------
B-3--------------------------5-------4---4---4---4.--5-------3---0------
G-2--------------------------2-----------------------4-------4---1------
D-0----------------------------------4---4---4---4.--2-------6---2------
A-----------------4------------------3---3---3---3.---------------------
E-----------------------------------------------------------------------


e-4-----------0---10~---------------------------------------------------
B-5---0-----------12~---------------------------------------------------
G-7-------7-------13~---------------------------------------------------
D-----------------------------------------------------------------------
A-----------------------------------------------------------------------
E-0---------------------------------------------------------------------


Part 2

e-------------------------2<14>-------0<12>-----------------------------
B---------------------2-------------------------------------------------
G-1--h2---2-------2------ natural harmonics ----------------------------
D-------------2-------------------------------2-------------------------
A---------0-------------------------------------------------------------
E-----------------------------------------------------------------------


e-----------------2<14>-------0<12>-------------------------------------
B-------------2---------------------------------------------------------
G-2-------2-------------------------------------------------------------
D-----2-------------------------------2---------------------------------
A-0---------------------------------------------------------------------
E-----------------------------------------------------------------------


e-----------------2<14>-------0<12>-------------------------------------
B-2---2-------2---------------------------------------------------------
G-2---2---2---------------------------2---------------------------------
D-----2-----------------------------------------------------------------
A-0---------------------------------------------------------------------
E-----------------------------------------------------------------------


e-----------------4<16>-------2<14>-------------------------------------
B-0-----2-----2-----------------------2-2-------------------------------
G-----2---2-------------------------------------------------------------
D-----------------------------------------------------------------------
A-----4-----------------------------------------------------------------
E-2---------------------------------------------------------------------


e------------------9<21>-------7<19>------------------------------------
B-------------------------------------------7---------------------------
G-7---9---7---11----------------------------7---9---7-------------------
D---------9--------9-----------9-------11-----------9---11--------------
A-----9-----------------------------------------9-----------------------
E-7-----------------------------------------7---------------------------


e-------------7---------------------------------------------------------
B-----------------------------------------------------------------------
G-----7---9-------------------------------------------------------------
D-9---------------------------------------------------------------------
A-7---------------------------------------------------------------------
E-0---------------------------------------------------------------------


Part 3

e-----------------2<14>-------0<12>-------------------------------------
B-2---2-------2-----------------------5---------------------------------
G-2---2---2-------------------------------------------------------------
D-----2-----------------------------------------------------------------
A-0---------------------------------------------------------------------
E-----------------------------------------------------------------------


e-4-----2-2-------4<16>-------2<14>-------------------------------------
B-------------2-----------------------5/7-------------------------------
G---------2-------------------------------------------------------------
D-----4-----------------------------------------------------------------
A-----------------------------------------------------------------------
E-2---------------------------------------------------------------------


e-5---5---5---5---5------------------------------------2----------------
B-7-------7---7---7---7.--2h3-0---0-----------7.---0--------------------
G-7-------7---7---7-------2---------------7-----------------------------
D-------------------------4-----------6---------------------------------
A-------------------------0---------------------------------------------
E-7---------------6---------------4----------------4-------2------------


Part 4

e-2---2-------------------0---2-3-----------------9<21>-----------7<19>-
B-3-------3-------3---------------7-------------------------------------
G-2-----------2-------2-----------------------7-------------------------
D-0---------------0-----------------------9---------------9<21>---------
A-------------------------4-----------9---------------------------------
E---------------------------------7-------------------------------------


e-----3-----2-2-0---0-------------------0---0---2---2---3---3---3/5.----
B-7.----------------0---------------------------------------------------
G-7.--0---------0---0-------------2-2-------2-------2-------2-----------
D-9.--2---------1---0---------------------------------------------------
A---------------------------4-------0-----0-0-----0-0-----0-0-----------
E-----------------------------------------------------------------------


e-3---2---2---0-2-5-----------0-2---------------------------------------
B-3-------3---------------2-------3-------------------------------------
G-2-------2-----------2-------------------4---2-2-3---5---3---5.--------
D-0-------0---------------------------4-----------5-------5---5.--------
A---------0-------4---------------2-------------------5-----------------
E-------------------------------------------------3---------------------


e---------2h3-5.-------10.-------10.-------10.------10-\\\--------------
B-----3-----------12--------10---------9--------8-----------------------
G-3.--2-----------12--------11--------10--------9-----------------------
D-0.--0-----------------------------------------------------------------
A-----------------------------------------------------------------------
E-----------------------------------------------------------------------


Part 5

e-----------------2<14>-----------0<12>---------------------------------
B-------------2---------------------------------------------------------
G-2-------2---------------2<14>-----------2<14>-------------------------
D-----0-----------------------------------------------------------------
A-0-------0-------------------------------------------------------------
E-----------------------------------------------------------------------


e-----------------2<14>-----------0<12>---------------------------------
B-------------2---------------------------------------------------------
G-2-------2---------------2<14>-----------2<14>-------------------------
D-----2-----------------------------------------------------------------
A-0---------------------------------------------------------------------
E-----------------------------------------------------------------------


e-----------------2<14>-----------0<12>---------------------------------
B-2---2-------2---------------------------------------------------------
G-2---2---2---------------2<14>-----------2<14>-------------------------
D-----2-----------------------------------------------------------------
A-0---------------------------------------------------------------------
E-----------------------------------------------------------------------


e-----------------4<16>-----------2<14>---------------------------------
B-0-----2-----2---------------------------2-----------------------------
G-----2---2-------------------------------------------------------------
D-------------------------4<16>-----------------------------------------
A-----4-----------------------------------------------------------------
E-2---------------------------------------2-----------------------------


e------------------9<21>---------7<19>----------------------------------
B-----------------------------------------------------------------------
G-7-9---7---------------------------------------------------------------
D---------9---11.--9-------------9--------11.---------------------------
A-----9-----------------------------------------------------------------
E-7---------------------------------------------------------------------


e-------------------------------7.--------------------------------------
B-----------------------------------------------------------------------
G-7---9---7-----------------9-------------------------------------------
D---------9---11.---9-7-9-----------------------------------------------
A-----9-------------7---------------------------------------------------
E-7-----------------0---------------------------------------------------


Part 6

e-----------------2-----------0<12>-------------------------------------
B-2---2-------0---0h2---------------------------------------------------
G-2---2---2-----2-----2<14>-----------2<14>-----------------------------
D-----2-----------------------------------------------------------------
A-0---------------------------------------------------------------------
E-----------------------------------------------------------------------


e-4-----2-2-------4<16>----------2<14>----------------------------------
B-------------2--------------------------5/7----------------------------
G---------2-------------------------------------------------------------
D-----4-------------------4<16>-----------------------------------------
A-----------------------------------------------------------------------
E-2---------------------------------------------------------------------


e-5---5---5---5---5--------------------------------------2--------------
B-7-----------7---7---7.--2h3p2-0---0-----------7.---0------------------
G-7-------7-------7-------2-----------------7---------------------------
D-------------------------4-------------6--------------------4---2.-----
A-------------------------0---------------------------------------------
E-7---------------6-----------------4----------------4-------2---0.-----


Part 7

e-2---2-------------------0---2-3-----------------9<21>-----------7<19>-
B-3-------3-------3---------------7-------------------------------------
G-2-----------2-------2-----------------------7-------------------------
D-0---------------0-----------------------9---------------9<21>---------
A-------------------------4-----------9---------------------------------
E---------------------------------7-------------------------------------


e-----3-----2-2-0---0-------------------0---0---2---2h3-3---3---3/5.----
B-7.--0---------0---0---------------------------------------------------
G-7.--0---------0---0-------------2-2-------2-------2-------2-----------
D-9.--2---------1---0---------------------------------------------------
A---------------------------4-------0-----0-0-----0-0-----0-0-----------
E-----------------------------------------------------------------------


e-3---2---2---0-0-5-----------2-/-7---------------7---9-10-7---9-10-----
B-3-------3-------2-------2-------7-------7-------7--------7------------
G-2-------2-------2---------------7-------7-------7--------7------------
D-0-------0-------4-------4-------9-------9-------9--------9------------
A---------0-------4---------------9---------------9--------9------------
E-----------------2---2-----------7---7-------7---7--------7------------


e-12---------------0-2h3-5-5/7------------------------------------------
B-12---------------0-----------------10---8p7-8p7-8p7-------------------
G-0--------0-------0---------------------------------9------------------
D-9--------9-------0----------------------------------------------------
A-10---------------------------------0----------------------------------
E-0------------0-0---------0--------------------------------------------


e-----------------------------------------------------------------------
B-7---------------------------------------------------------------------
G-----9p7-9p7-9p7-6p7---6-----------------------------------------------
D---------------------9---9-7-7---\\\-----------------------------------
A-0---------------0-----------0-----------------------------------------
E-----------------------------------------------------------------------


e---------------2-3-5----------------------7---------7---9-10-7---9-10--
B-3-------2-3-5-----2-------2-3-5-7-8-10.--7---------7--------7---------
G-2---2-4-----------2---2-4----------------7---------7--------7---------
D-0-------0---------4----------------------9---------9--------9---------
A-------------------4-------0--------------9---------9--------9---------


e-12-----------------------12------------------8------------------------
B-12-----------5-7-8-----------------------------------------------0----
G-0---------------------------------5---5-5-------------5---5h6p5\-0----
D-9---------------------------------------------------------------------
A-10-------7---6---5------------------------------------0---------------
E-0------------------------9--------8----8-8---8--7--6----------------4.


Part 8      the rock and roll has just started ... :D

e-----------------------------------------------------------------------
B-4.--4.--4.--4.--4.--4.--4.--6.--4---3---4---6---4---3---4----9.-------
G-5.--5.--5.--5.--5.--5.--5.--6.--5-5-4-4-5-0-6-0-5-5-4---5-5-10.-------
D-----6.--6.--6.--6.--6.--6.--6.--6---6---6---6---6---6---6---11.-------
A-----------------------------------------------------------------------
E-----------------------------------------------------------------------


e----------------------------------------------2-2-2-2-----3.--4.-------
B-4----9.--4---3---4---6.--4.--5-5-5-5-6.--6.--2-2-2-2-4---4.--4.-------
G-5-5-10.--5-5-4-4-5-5-6.--5.--4-4-4-4-4.--4.--3-3-3-3-3---3.--5.-------
D-6---11.--6---6---6---6.--6.--------------------------5---5.-----------
A------------------------------------------------------6----------------
E------------------------------3-----3-3.--3.--2---------------4.-------


e-11-11-12p11.--------11-11-12p11.--------11-11-12-11-9-7-6-------------
B-------------------------------------------------------------9-9/10----
G-------------8-8-9p8.------------8-8-9p8.---------------------------11~
D-----------------------------------------------------------7-----------
A-----------------------------------------11-11-12-11-9-7-6-------------
E-----------------------------------------------------------------------


e-----------------------------------------------------------------------
B--------0--------------------------------------------------------------
G-----------------------------------------------------------------------
D-<12>----------------8.--7-7-6.--7.--8.--7-7-6.--7.--------------------
A----------<12>---------------------------------------------------------
E---------------------6.--5-5-4.--5.--6.--5-5-4.--5.--------------------


e-7---5-5-4---5---7-7-5.--4-4-5---7---7-9-5---5-5-4-4-4-4-5-------------
B-8---7-7-6---7---8-8-7.--6-6-7---8---8---------------------------------
G-----------------------------------------------------------------------
D-0---0-0-0---0---0-0-0.--0-0-0---0---0---4---4---2-0-------------------
A-----------------------------------------------------4-2-0-------------
E-----------------------------------------------------------------------


e------------10.-------10.-------10.------------------------------------
B-10-10-12--------10---------9--------8---------------------------------
G-------12--------11--------10--------9---------------------------------
D-----------------------------------------8-8-7.--6-6-7.--8-8-7-7-6-----
A---------------------------------------------------------------------0-
E-----------------------------------------6-6-5.--4-4-5.--6-6-5-5-4-----


e----------10-------------------10---10---------------------------------
B----------10-------7-5-7-8-7-5-10---10------------------5-7-5-7-8-7-5--
G----------11-------7-6-7-9-7-6-11---11------------------6-7-6-7-9-7-6--
D----------0--------------------0----0----------------------------------
A-/5---0---0--------0-0-0-0-0-0-0----0--------0---/5---0-0-0-0-0-0-0-0--
E-----------------------------------------------------------------------


e-10-10-10--------------------------------10-10-10-----------10-10-10---
B-10-10-10------------------5-7-5-7-8-7-5-10-10-10-5-7-8-7-5-10-10-10---
G-11-11-11------------------6-7-6-7-9-7-6-11-11-11-6-7-9-7-6-11-11-11---
D-0--0--0---------------------------------------------------------------
A-0--0--0--------0---/5---0-0-0-0-0-0-0-0----------0-0-0-0-0------------
E-----------------------------------------------------------------------


e-----------------------------------------------------5.--9.--10.-------
B-5-7-8-7-5------------------6--------6.--5.--6.--5.--6.------7.--------
G-6-7-9-7-6---7-7----------------8.---6.--6.--6.--5.--5.--9.--7.--------
D-----------7-----10------------------8.--7.--6.--5.--3.------0.--------
A-0-0-0-0-0------------<5>------------8.--7.--4.--3.------0-------------
E-------------------------------------6.--5.----------------------------


e-------------------------------5-5-7-5---------5.---10----10-10---10-10
B-------------------------------7-7-8-7-8-7-5---5.---7--------0---------
G-2-2-2-4p2-2-2-4p2-2-2-4p2.------------9-7-6---6.---7--------0---------
D-0-----0-------0---------------0-0-0-0--------------0--------0---------
A---------------------------------------0-0-0---0.----------------------
E-----------------------------------------------------------------------


e-9-9-9-9-14.---14.--3-----3-3-3-2-----0-----7-7-7-7-7-7-5-----0--------
B-9------------------2-----2-2-2-2-----0-----5-5-5-5-5-5-5-----0--------
G-10-----------------2-----2-2-2-2-----0-----6-6-6-6-6-6-6-----0--------
D--------------------------2-2-2-2-----0-----7-7-7-7-7-7-7-----0--------
A---------9.----9.---0-----0-0-0-2-----0-----0-0-0-0-0-0-0-----0--------
E-9-------9.----9.---------0-0-0-0-----0-----0-0-0-0-0-0-0-----0--------


e-17-17-17-17-17-17-17-17-17-17-17-17-17-17-17-17-17-17-17---\\\--------
B-14-14-14-14-14-14-14-14-14-14-14-14-14-14-14-14-14-14-14---\\\--------
G-14-14-14-14-14-14-14-14-14-14-14-14-14-14-14-14-14-14-14---\\\--------
D-14-14-14-14-14-14-14-14-14-14-14-14-14-14-14-14-14-14-14---\\\--------
A-0--0--0--0--0--0--0--0--0--0--0--0--0--0--0--0--0--0--0---------------
E-0--0--0--0--0--0--0--0--0--0--0--0--0--0--0--0--0--0--0---------------


Part 9

e-----------------------------------------------------------------------
B-3---------------------2-3---------------------------------------------
G-2---------0-2---2-4-----2---------0-2h4p2-2---x-----------------------
D-4---4-------------------4---4-------------0---x-----------------------
A-5-----------0-----0-----5-----------0-----0---x-----------------------
E-2-----2-----------------2-----2---------------------------------------


e-------------------------0---------------------------------------------
B-3-----------------2---3-0-----------0h2p0-----------------------------
G-2---------0-2---4-------1---1-----2-----------1-----------------------
D-4---4-------------------------------2-----2---------------------------
A-5-----------0-----0-----2---------------------------------------------
E-2-----2-----------------------0---------------------------------------


e---3----3--3--2----2--2--0----0--------------------0-------------------
B---2----2--2--2----2--2--2----2---3---3----3---2h3--------------------1
G---2----2--2--2----2--2--2----2---2---2----2-----------2-2p0-2p0------0
D-----------2----------2-----------4---4----4---------------------2-----
A------0----0-----0----0-----0-----5------------0-------------------3---
E-0--------------------------------2------2-----------------------------


e-----3---3---3---2---2---2---0---0---------------3-----7---------------
B-2---2---2---2---2---2---2---2---2---3---3---3---3-----------3---------
G-2---2---2---2---2---2---2---2---2---2---2---2---4-----------4---------
D-2-----------2-----------2-----------4---4---4---------------5---------
A-------0-----0-----0-----0-----0-----5---------------------------------
E-------------------------------------2-----2-----3-----3---3-3---------


e-------3---3-3-3-3-3-3-3-3-3-2-----0-----------------------------------
B-------0---0-0-0-0-0-0-0-0-0-2-----0-----------------------------------
G-------0---0-0-0-0-0-0-0-0-0-2-----0-----------------------------------
D-5-4.--2---------------2-----2-----------2h4p2-------------------------
A-------2---------2-----------0-----------------4p2p0-------------------
E-3-2.--0---0-----------------------------------------------------------


e-0---3---3---3---2---2---2-----0---------------------------------------
B-0---0---0---0---2---2---2-----0---------------------------------------
G-0---0---0---0---2---2---2-----0---------------------------------------
D-------------2-----------2---------------2h4p2p0-----------------------
A-------------2-----0-----0-----------2h4-------------------------------
E-0-----0-----0---------------------------------------------------------


e-----------------------------------------------------------------------
B-3-----3-3-3-5-----0-----3-----3-3-3-5---3-----2-----------------------
G-0-----------------0-----0---------------------------------------------
D-2-----------------------2---------------------------------------------
A-------2-----0-----------------2-----0-------0-------------------------
E-0-----------------------0---------------------------------------------


e-----------------------------------------------------------------------
B-3---------------------2-3---------------------------------------------
G-2---------0-2---2-4-----2---------0-2h4p2-2---x-----------------------
D-4---4-------------------4---4-------------0---x-----------------------
A-5-----------0-----0-----5-----------0-----0---x-----------------------
E-2-----2-----------------2-----2---------------------------------------


e-------------------------0---------------------0-----------------------
B-3-----------------2---3-0-----------0---2-4---------------------------
G-2---------0-2---4-------1---------2-----------------------------------
D-4---4-----------------------2-------0---------------------------------
A-5-----------0-----0---------------------------------------------------
E-2-----2-----------------0-----0-----------0---------------------------


e-----------------------------------------------------------------------
B-----0-----------------------------------------------------------------
G-------2---0-2-4---2-4-5.----------------------------------------------
D-3---------------------------------------------------------------------
A-----2-0-----0-2---0-2-3.----------------------------------------------
E-1---------3-----------------------------------------------------------


Part 10

e-----------------------------------------------------------------------
B-----------------------------------------------------------------------
G------------------------7-8---\------------------0---------0-2---------
D--------6----6-8-6-8-10----------------------0-----2p0-2-3-------------
A-6h8-10---10---------------------------0h2-3---3-----------------------
E-6-------------------------------------3-------------------------------


e-------------------2---2-3---------------------------------------0-----
B-----2-3p2-3---5-----5-------------------------------------2-----------
G-2h4---------2---2--------------------------------0---0-2-----2------2.
D------------------------------------0---0-2h4-2-4---4------------------
A-0----------------------------0h2h4---4---0-----------0----------------
E------------------------------5----------------------------------------


Part 11

e-2-------2-5-------0-------0-5-------7-------7-------2-----------------
B-3-3---3---3-------5-5---5---2-------7-----7-7-------2-----------------
G-2---2-----2-------2---2-----2-------7---7---7-------3-----------------
D-0---------0-----------------x-------9-9-----9-------4-----------------
A-0---------0-------4---------4-------9---------------4-----------------
E-------------------------------------7---------------2-----------------


e-0-2-------2-----0-2-------0-----3-2-/-5.-4-----------4.---------------
B---3-------2-------3-------2-------3-/-7.-6-------7--------------------
G---4-------3-------4-------2-------2-/-5.-4-------4--------------------
D---4-------4-------4-------2-------0----------6------------------------
A---2---------------2-------0--------------4----------------------------
E-----------2-----------------------------------------------------------


e-5---------------------------------------------------------------------
B-2-----------2---<12>-----------<12>-----------------------------------
G-2-------2------------------0-----------2<14>---2----------------------
D-4---4------------------0-------------------------------4--------------
A----------------------------------------5-----------5------------------
E-2----------------3----------------------------------------------------


e-2h3---2-------------------2-------2-----------------------------------
B-----------3-----------------------3---5-3---2-------------------------
G-------------------2---2-----------4-------------2-----------2---------
D---------------4---------------4---4---------------------4-------------
A-2---------------------4-----------2-----------------4-----------------
E-------------------2-----------------------------2---------------------


e-2-------0---2---3-----------------------------------------------------
B-3---3-----------3-----------------------------------------------------
G-4---------------3---3-------------------------------------------------
D-4---------------5-----------------------------------------------------
A-2---------------------------------------------------------------------
E-----------------3-----------------------------------------------------


e-2---p0---2------------------------------------------------------------
B-0------------3---3---0------------------------------------------------
G-0--------------------------------6------------------------------------
D-----------------------------------------------------------------------
A-----------------------------------------------------------------------
E-0---------------------------------------------------------------------


e-------------5.--------10--------10---5-----------5.--------9--------9.
B---------7--------12--------12--------7-------7--------12-------12-----
G-7----------------12--------12--------7---7------------10-------10-----
D-0------------------------------------0--------------------------------
A-----------------------------------------------------------------------
E-----------------------------------------------------------------------


e-5-----------5.---5---3---3--------2-----------2.---5---3---3---2------
B-5-------5--------5-----------7.---4-------4--------4-------4----------
G-6---6------------5----------------4---4------------4-------2----------
D-----------------------------------------------------------------------
A-4----------------3----------------2----------------2-------2----------
E-----------------------------------------------------------------------


e----------------------------0----------------------------------0-------
B-5/7---\4------------------------------------------------------2-------
G------------4---2---1---------------2---2.---1---1.---0---0----2-------
D-----------------------------------------------------------------------
A------------------------------------4--------2--------1----------------
E--------------------0-----------0------------------------------2-------


e-----------------------------------------------------------------------
B-----------------------------------------------------------------------
G-1---------------------------------------------------------------------
D-2---------------------------------------------------------------------
A-2---------------------------------------------------------------------
E-0---------------------------------------------------------------------