20130804

CARLOS SANTANA I LOVE YOU MUCH TOO MUCH TAB

There is a short video how to play the main parts of I Love You Much Too Much.
This is a nice instrumental love song by Carlos Santana.
See the TAB below.



CARLOS SANTANA I LOVE YOU MUCH TOO MUCH TAB      

PDF >>

Part 1

e------7----------------------------------------------------------------
B------------10.---8-7-10~-------------\--------------------------------
G-----------------------------------------------------------------------
D-9.--------------------------------------------------------------------
A-----------------------------------------------------------------------
E-----------------------------------------------------------------------


e-----------------------------------------------------------------------
B------10-----9.---8-7-8~-----------------------------------------------
G-----------------------------------------------------------------------
D-9.--------------------------------------------------------------------
A-----------------------------------------------------------------------
E-----------------------------------------------------------------------



e-----------------------------------------------------------------------
B------7h8---8---7---7~-------------------------------------------------
G------------------9----------------------------------------------------
D-9.--------------------------------------------------------------------
A-----------------------------------------------------------------------
E-----------------------------------------------------------------------


e-----------------------------------------------------------------------
B-----------------------------------------------------------------------
G--------------8-----9~-----------------------\-------------------------
D-9-----11--------------------------------------------------------------
A-----------------------------------------------------------------------
E-----------------------------------------------------------------------


Part 2

e------7----------------------------------------------------------------
B--------------10.---8-7-10(12)(10)~--------------\---------------------
G-----------------------------------------------------------------------
D-9.--------------------------------------------------------------------
A-----------------------------------------------------------------------
E-----------------------------------------------------------------------


e-----------------------------------------------------------------------
B------10-----9.---8-7-8~-----------------------------------------------
G-----------------------------------------------------------------------
D-9.--------------------------------------------------------------------
A-----------------------------------------------------------------------
E-----------------------------------------------------------------------


e-----------------------------------------------------------------------
B------7h8---8---7---7~-------------------------------------------------
G------------------9----------------------------------------------------
D-9.--------------------------------------------------------------------
A-----------------------------------------------------------------------
E-----------------------------------------------------------------------


e-----------------------------------------------------------------------
B-----------------------------------------------------------------------
G--------------8-----9~-------------------------------------------------
D-9-----11--------------------------------------------------------------
A-----------------------------------------------------------------------
E-----------------------------------------------------------------------


Part 3

e------------------------------------7----------------------------------
B-------7-----8-----10-----10---9-10---10~----\-------------------------
G-9---------------------------------------------------------------------
D-----------------------------------------------------------------------
A-----------------------------------------------------------------------
E-----------------------------------------------------------------------


e------7h8---7---7----7-------------------------------------------------
B------------------10-----10(12)~~--------------------------------------
G-7.--------------------------------------------------------------------
D-----------------------------------------------------------------------
A-----------------------------------------------------------------------
E-----------------------------------------------------------------------


e-7---------------------------------------------------------------------
B-------11-------7----7-10---10~------------------8---8-----10p8p7~-----
G------------------10---------------------------------------------------
D-----------------------------------------------------------------------
A-----------------------------------------------------------------------
E-----------------------------------------------------------------------


Part 4

e------7----------------------------------------------------------------
B----------------10.---8-7-10(11)(10)~-------10~-----\------------------
G-----------------------------------------------------------------------
D-9.--------------------------------------------------------------------
A-----------------------------------------------------------------------
E-----------------------------------------------------------------------


e-----------------------------------------------------------------------
B------10-----9.---8-7-8~-----------------------------------------------
G-----------------------------------------------------------------------
D-9.--------------------------------------------------------------------
A-----------------------------------------------------------------------
E-----------------------------------------------------------------------


e-----------------------------------------------------------------------
B------7h8---8---7---7(8)(7)~-------------------------------------------
G------------------9----------------------------------------------------
D-9.--------------------------------------------------------------------
A-----------------------------------------------------------------------
E-----------------------------------------------------------------------


e-----------------------------------------------------------------------
B-----------------------------------------------------------------------
G--------------8-----9~-------------------------------------------------
D-9-----11--------------------------------------------------------------
A-----------------------------------------------------------------------
E-----------------------------------------------------------------------


Part 5

e------------------------------------7----------------------------------
B-------7-----8-----10-----10---9-10---10~----\-------------------------
G-9---------------------------------------------------------------------
D-----------------------------------------------------------------------
A-----------------------------------------------------------------------
E-----------------------------------------------------------------------


e------7h8---7---7----7-------------------------------------------------
B------------------10-----10(12)~~--------------------------------------
G-7.--------------------------------------------------------------------
D-----------------------------------------------------------------------
A-----------------------------------------------------------------------
E-----------------------------------------------------------------------


e-7---------------------------------------------------------------------
B-------11-------7\6-7-10---10~--------------7.-----8h10---8.-----------
G----------------------------------------------------------------7h9~---
D-----------------------------------------------------------------------
A-----------------------------------------------------------------------
E-----------------------------------------------------------------------