20130827

CARLOS SANTANA OYE COMO VA TAB



Carlos Santana - Oye Como Va guitar tab according to the album version.



CARLOS SANTANA OYE COMO VA TAB                  

PDF >>

Intro solo

e-5.---5-7-8-10.---7----------------------------------------------------
B--------------------8h10-----------------------------------------------
G-----------------------------------------------------------------------
D-----------------------------------------------------------------------
A-----------------------------------------------------------------------
E-----------------------------------------------------------------------


e-5.---5-7-8-10---7-----5-----------------------------------------------
B---------------------8-------------------------------------------------
G-------------------------7(8)(7)-5.------------------------------------
D-----------------------------------------------------------------------
A-----------------------------------------------------------------------
E-----------------------------------------------------------------------



e-5.---5-7-8-10.---7----------------------------------------------------
B--------------------8h10-----------------------------------------------
G-----------------------------------------------------------------------
D-----------------------------------------------------------------------
A-----------------------------------------------------------------------
E-----------------------------------------------------------------------


e-5.---5-7-8-10---7-----5-----------------------------------------------
B---------------------8-------------------------------------------------
G-------------------------7(8)(7)-5.------------------------------------
D-----------------------------------------------------------------------
A-----------------------------------------------------------------------
E-----------------------------------------------------------------------


Solo

e-----------------------------------------------------------------------
B-------------------5.---8---5.---8.---5h7------------------------------
G--------------5.----------------------------7~----------p5---7p5-------
D-5h7~------------------------------------------------------7-----7.----
A-----------------------------------------------------------------------
E-----------------------------------------------------------------------


e-------------------------------------5~--------------------------------
B------------------5.---8--p5-8-5h7---------------------5---------------
G-------------5.------------------------------------------5-------------
D-7~--------------------------------------------------------7.----------
A-----------------------------------------------------------------------
E-----------------------------------------------------------------------


e-----------------------------------------------------------------------
B-------------------5.---8--p5---8.---5h7-------------------------------
G--------------5.---------------------------7~-----------5-7-7p5--------
D-5h7~-------------------------------------------------7---------7.-----
A-----------------------------------------------------------------------
E-----------------------------------------------------------------------


e---------------5----------------5~-----///-----------------------------
B---------5---8-----5---8-5h7~------------------------------------------
G-----5-----------------------------------------------------------------
D-7---------------------------------------------------------------------
A-----------------------------------------------------------------------
E-----------------------------------------------------------------------


e-8-8-5-5-8-5---8--p5-----5.--------------------------------------------
B---------------------6h7-----------------------------------------------
G-----------------------------------5-7-7p5-----------------------------
D---------------------------------7---------7.--------------------------
A-----------------------------------------------------------------------
E-----------------------------------------------------------------------


e-8-8-5-5-8p5---------5-------------------------------------------------
B---------------6h7-----5-----------------------------------------------
G-------------------------5~--------------------------------------------
D-----------------------------------------------------------------------
A-----------------------------------------------------------------------
E-----------------------------------------------------------------------


e-8-8-5-5-8p5---h8---5-----5.-------------------------------------------
B----------------------6h7----------------------------------------------
G------------------------------------5-7-7p5----------------------------
D----------------------------------7---------7.-------------------------
A-----------------------------------------------------------------------
E-----------------------------------------------------------------------


e-8-8-5-5-8p5---------5~-----------///-12-\\\---------------------------
B---------------6h7-----------------------------------------------------
G-----------------------------------------------------------------------
D-----------------------------------------------------------------------
A-----------------------------------------------------------------------
E-----------------------------------------------------------------------


e-8p5.---8p5.---8p5.---8p5.---8p5.---8-8p5.---8p5.---8p5----------------
B-----------------------------------------------------------------------
G--------------------------------------------------------7(9)(7)~~~-----
D-----------------------------------------------------------------------
A-----------------------------------------------------------------------
E-----------------------------------------------------------------------


e-----------------------------------------------------------------------
B-------------------------------------5---5-7.--------------------------
G-5---h7p5.---------5-5-5-5-5.---5.-----5-------------------------------
D------------------------------------------------4-5---6---7------------
A-----------------------------------------------------------------------
E-----------------------------------------------------------------------


e-----------------------------------------------------------------------
B-------------------5---5-7.--------------------------------------------
G-5-5-5-5-5.---5.-----5-------------------------------------------------
D------------------------------4-5---6---7------------------------------
A-----------------------------------------------------------------------
E-----------------------------------------------------------------------


e-----------------------------------------------------------------------
B-------------------5---5-7.--------------------------------------------
G-5-5-5-5-5.---5.-----5-------------------------------------------------
D------------------------------4-5---6---7------------------------------
A-----------------------------------------------------------------------
E-----------------------------------------------------------------------


e-----------------------------------------------------------------------
B-------------------5---5-7.--------------------------------------------
G-5-5-5-5-5.---5.-----5-------------------------------------------------
D------------------------------4-5---6---7------------------------------
A-----------------------------------------------------------------------
E-----------------------------------------------------------------------


Little Part by 1:52

e-----------------------------------------------------------------------
B-------5-----5-------5-----5-----------5-----5-------5-----5-----------
G-----5-----5-------5-------5---------5-----5-------5-------5-----------
D-7-------6-----5-------4-----4---7-------6-----5-------4-----4---------
A-----------------------------------------------------------------------
E-----------------------------------------------------------------------


e-----------------------------------------------------------------------
B-------5-----5-------5-----5-----------5-----5-------5-----5-----------
G-----5-----5-------5-------5---------5-----5-------5-------5-----------
D-7-------6-----5-------4-----4---7-------6-----5-------4-----4---------
A-----------------------------------------------------------------------
E-----------------------------------------------------------------------


e-5-5-5-5-5-5-5-5-5-5-5-5-5.---5.---5.----------------------------------
B-5-5-5-5-5-5-5-5-5-5-5-5-5.---5.---5.----------------------------------
G-5-5-5-5-5-5-5-5-5-5-5-5-5.---5.---5.----------------------------------
D-7-7-7-7-6-6-6-6-5-5-5-5-4.---4.---4.----------------------------------
A-----------------------------------------------------------------------
E-----------------------------------------------------------------------


Final solo

e-5--/12~~~~~~~~~~~~~---------------------------------------------------
B-----------------------------------------------------------------------
G-----------------------------------------------------------------------
D-----------------------------------------------------------------------
A-----------------------------------------------------------------------
E-----------------------------------------------------------------------


e-8---5-5-8-5-5-8---5-----5.--------------------------------------------
B---------------------6h7-----------------------------------------------
G------------------------------5-7-7p5----------------------------------
D--------------------------------------7.-------------------------------
A-----------------------------------------------------------------------
E-----------------------------------------------------------------------


e-8-8-5-5-8-5-----5.----------------------------------------------------
B-------------6h7-------------------------5-----------------------------
G----------------------7(8)(7)~~--------5---5h7p5-----------------------
D-------------------------------------------------7.--------------------
A-----------------------------------------------------------------------
E-----------------------------------------------------------------------


e-8-8-5-5-8-5---8---5-----5.--------------------------------------------
B---------------------6h7-----------------------------------------------
G------------------------------5-7-7p5----------------------------------
D--------------------------------------7.-------------------------------
A-----------------------------------------------------------------------
E-----------------------------------------------------------------------


e-8-8-5-5-8-5-5-------5----/12------------------------------------------
B---------------6h7-----------------------------------------------------
G-----------------------------------------------------------------------
D-----------------------------------------------------------------------
A-----------------------------------------------------------------------
E-----------------------------------------------------------------------


e-----------------------------------------------17.---------------------
B-20(22)---20(22)-------(20)(22)(20)-17-18h19---------------------------
G--------------------------------------------------17~----\\\-----------
D-----------------------------------------------------------------------
A-----------------------------------------------------------------------
E-----------------------------------------------------------------------


e----------------5--------------5--------------5--------------5-------5-
B-8(10)(8)(10)-----8(10)(8)(10)---8(10)(8)(10)---8(10)(8)(10)---8(10)---
G-----------------------------------------------------------------------
D-----------------------------------------------------------------------
A-----------------------------------------------------------------------
E-----------------------------------------------------------------------


e-----------------------------------------------------------------------
B------5---------5----------------------------5---------5.-5-5---5-5----
G-7(9)---7p5---5---5---7(9)(7)~-------7(9)~-----7(9)~------5-5---5-5----
D------------7-------7-----------------------------------------7-----7--
A-----------------------------------------------------------------------
E-----------------------------------------------------------------------


e-----------------------------------------------------------------------
B--------------------------------5-5----7---5---5------5-7---7-5--------
G--------------------------------5-5----7---5---5------5-7---7-5--------
D-5h7~-----5h7p5---------------------7.-----------7.--------------------
A----------------7\5p3-5---3--------------------------------------------
E------------------------------x----------------------------------------


e------------------8p5-5-8p5.---8p5.---12-\-p5.---8p5.---10-\-p5.-------
B-5---5-----------------------------------------------------------------
G-5---5-----------------------------------------------------------------
D---------7p5-----------------------------------------------------------
A-------------7.--------------------------------------------------------
E-----------------------------------------------------------------------


e-8p5.---8-8p5.---8p5.---8p5-5-8p5-5-8p5-5-8---5-8---8-8p5-8p5-8p5.-----
B-----------------------------------------------------------------------
G-----------------------------------------------------------------------
D-----------------------------------------------------------------------
A-----------------------------------------------------------------------
E-----------------------------------------------------------------------


e-----------------------------------------------------------------------
B-5.---5-5.---5-5-5.---5-5-5-5-7-x-5.---5.---5.---5-5.---7.-x-5.--------
G-5.---5-5.---5-5-5.---5-5-5-5-7-x-5.---5.---5.---5-5.---7.-x-5.--------
D-7.---7-7.---7-7-7.---7-7-7-7-7-x-7.---7.---7.---7-7.---7.-x-7.--------
A-----------------------------------------------------------------------
E-----------------------------------------------------------------------


e-----------------------------------------------------------------------
B-5.--------------------------------------------------------------------
G-5.--------------------------------------------------------------------
D-7.--------------------------------------------------------------------
A-----------------------------------------------------------------------
E-----------------------------------------------------------------------