20130823

ERIC CLAPTON DRIFTING BLUES TAB (UNPLUGGED LIVE TV RECORDING IN 2008)

The 63 year old Eric Clapton plays Drifting Blues live at the Hard Rock Calling Festival on 28th June 2008 in Hyde Park, London. Hard combination of using a pick and the fingers at the same time. See the TAB below.



ERIC CLAPTON DRIFTING BLUES TAB

PDF >>

Intro

e-------------------0----0-0-0-0-0-0-0-0----0-0-------------0--0------0-
B-------------------0-/3-3-3-3-3-3-3-3-3-/3-3-3----------------0--3'----
G----2-4--------------/4-----------------/4-----4\2-0-------------------
D-5'-----5'---2---------------------------------------2-----------------
A-----------------------------------------------------------------------
E---------------0------------0-0-0-0-0-0-0--------------0---------------


e-----------------------------------------------------------------------
B-----------------------------------------------------------------------
G-----2---------------------------------------2-4-----------------------
D-----2-2-----2-5'---5'-2-----2-----------2-5-----5'---2----------------
A-0-----0-3h4-------------3h4---0-----3-4-------------------------------
E-----------------------------------------------------------------------



e-----3'-3'---3'-3'---3'-0---------0-0--------------0-0-----------------
B-----2'-2'---2'-2'---2'---0-------0-0-3'-0---------0-0-----------------
G----------------------------2-0h1----------2-0h1-----------------------
D-------------------------------------------------2---------------------
A-------------------------------------------------------0-1-------------
E-0---------------------------------------------------------------------


e-------------2-2---2-2-------------------------------------------------
B-----0---0---0-0---0-0-------------------------------------------------
G-------2-----2-2---2-2---------------------2-4-------------------------
D---------------------------2.---2-----2-5'-----5'---2------------------
A-2-------------------------0.-----3-4----------------------------------
E-----------------------0-3---------------------------------------------


e-----0-0----0--0----0--0----0--0---------------------------------------
B-------------------------------------0---0-0---------------------------
G---------------------------------------2---2-----2---x-----------------
D-------------------------------------------1-----1---x-----------------
A-------5-----5-4-----4-3-----3-2---2-------------2---x-----------------
E-0---------------------------------------------------------------------


Verse 1

e-----------------------------------------------------------------------
B-----------------------------------------------------------------------
G-----------------------------------------------------------------------
D-----------------------2-2-x-2-4-x-4-2-x-2-4-x-2-----------------------
A-2-x-2-4-x-4-2-x-2-2-4---0-x-0-0-x-0-0-x-0-0-x-0-----------------------
E-0-x-0-0-x-0-0-x-0-0---------------------------------------------------


e-----------------------------0-----------------------------------------
B-----------------------------0-----------------------------------------
G---------------------2---0h1-------------------------------------------
D-------------------2-2-------------------------------------------------
A-2-x-2-4-x-4-2-x-2-0-------------4-x-4-2-x-2-4-x-----------------------
E-0-x-0-0-x-0-0-x-------0-------0-0-x-0-0-x-0-0-x-----------------------


e-----------------------------------------------------------------------
B-----------------------------------------------------------------------
G---------------------0-------------------------------------------------
D-2-x-2-4-x-4-2-x-2-4---0-2-x-2-4-x-4-2-x-2-4-x-4-----------------------
A-0-x-0-0-x-0-0-x-0-------0-x-0-0-x-0-0-x-0-0-x-0-----------------------
E-----------------------------------------------------------------------


e-----------------------------0-----------------------------------------
B-----------------------------0-----------------------------------------
G---------------------2---0h1-------------------------------------------
D-------------------2-2-------------------------------------------------
A-2-x-2-4-x-4-2-x-2-0-------------4-x-4-2-x-2-4-x-4.--------------------
E-0-x-0-0-x-0-0-x-0-----0-------0-0-x-0-0-x-0-0-x-0.--------------------


e-----0-0---0-0---0-----------------------------------------------------
B-----0-0---0-0---0-----------------------------------------------------
G-2---2-2---2-2---2-2---------------------------1-----------------------
D-1-----1-----1-----1-----2-x-2-4-x-4-2-x-2-4-x-2-----------------------
A-2-----2-----2-----2-----0-x-0-0-x-0-0-x-0-0-x-2-----------------------
E---------------------0-3-----------------------------------------------


e-------0-----0-0-0-0-0-------------0-------0---0-0---------------------
B-------0-----0-0-3-0-3-------------0---0---0---0-0---------------------
G-0h1.----2/4-----------4\2-0-----------2---2-----2---2-----------------
D-2.--------------------------2-----------1-------1---1-----------------
A-2.----------------------------------2---2-------2---2-----------------
E-0.----------------------------0---------------------------------------


Verse 2

e-----------------------------------------------------------------------
B-----------------------------------------------------------------------
G-----------------------------------------------------------------------
D---------------------0---2-x-2-4-x-4-2-x-2-4-2-2-----------------------
A-2-x-2-4---4-2---2-4---0-0-x-0-0-x-0-0-x-0-0-0-0-----------------------
E-0-x-0-0---0-0---0-0---------------------------------------------------


e-----0----0-0-0-0-0-------------0-----------------0--------------------
B-----0-/3-3-3-3-3-3-------------0-3p2p0-----------0--------------------
G-------/4-----------4\2-0---------------2---0h1------------------------
D--------------------------2---------------------2----------------------
A-2--------------------------2-----------------------2------------------
E-0--------------------------0-----------------------0---3--------------


e-----------------------------------------------------------------------
B-----------------------------------------------------------------------
G---------------------0-------------------------------------------------
D-2-x-2-4-x-4-2-x-2-4---0-2-x-2-4-x-4-2-x-2-4-x-4-----------------------
A-0-x-0-0-x-0-0-x-0-------0-x-0-0-x-0-0-x-0-0-x-0-----------------------
E-----------------------------------------------------------------------


e-----0-----------------------------------------0-----------------------
B-----0-----------------------------2---2-0-----0-----------------------
G-----------------------------------2---2-0h1---------------------------
D----------------2-5'-2-------2~--------2-------------------------------
A-2---------2-5'--------4-2-4-----------x---------0-1-2-----------------
E-0-----3h4-----------------------0-----0-------------------------------


e-----------0-0---0-0-0-------------------------------------------------
B-0-----0---0-0---0-0-0-------------------------------------------------
G-2-----2-----2-----2-2-------------------------------------------------
D-------1-----1-----1-1---2---2-4-x-4-2-x-2-----2-----------------------
A-------2-----2-----2-2-------0-0-x-0-0-x-0-3h4-------------------------
E-----------------------3-----------------------------------------------


e-----0-----0-0-0-0-0---------------------------------------------------
B-----0-----0-0-3-0-0---------------0---0-0-----------------------------
G-------2/4-----------4\2-0-----------2---2----------/------------------
D---------------------------2-----1-------------------------------------
A-----------------------------2---2-------------------------------------
E-0---------------------------0-----------------------------------------


SOLO

e-----------------------------------------------------------------------
B----8-10-10(12)-10(12)---10(12)-10~---p8----8'-------------------------
G-/9--------------------------------------9-------9---------------------
D-----------------------------------------------------------------------
A-----------------------------------------------------------------------
E---------------------------------------------------0-x-----------------


e-------3'-3'----3'-0--------------------0-----0-0-----0-0--------------
B---------------------3'-0---------------0-----0-0-----0-0--------------
G--------------------------2~---p0---------2/4-----2/4-----4\2p0-0h1----
D-x-2------------------------------2-----------------------------2------
A-x-0-------------------------------------------------------------------
E------------------------------------0----------------------------------


e-----0------------------0----------------------------------------------
B-----0-3p2p0------------0----------------------------------------------
G-------------2---0h1---------------------------------------------------
D---------------------2--------2-2--------------------------------------
A--------------------------2/4------------------------------------------
E-0---------------------------------------------------------------------


e-----0-x---------------------------------------------------------------
B-----0-x-10(12)-10-8'---8'---------------------------------------------
G-------x-x------------9----9--7---------------------------7------------
D-2-----x-x-----------------------9-\-2---2-x-----5--7-/-9----9\7--p5---
A-0-----------------------------------0-------/7----------------------7-
E-----------------------------------------------------------------------


e-----0-------0-0---0-------------0-0---0-0-----------------------------
B-----0-----0---3-0-3-------------0-0-3-0-0------8.-10.-10(12).---------
G-------2/4-----------4\2-0-------------------/9------------------------
D---------------------------2-------------------------------------------
A-----------------------------------------------------------------------
E-0---------------------------0-----------------------------------------


e-------------------------0---------------------------------------------
B-10~---p8-----8'-------------0-----------------------------------------
G----------9--------9---------------------------1--h2p1-0---------------
D---------------------9-\---------2---2-----2-2-----------2--p0-2-------
A---------------------------2-----0---0-3h4-----------------------------
E-------------------------------3---------------------------------------


e-------0----0--0----0--0----0--0---------------------------------------
B-------------------------------------0---0-0---------------------------
G---------------------------------------2---2---------------------------
D---------------------------------------------------2---2---------------
A-------5-----5-4-----4-3-----3-2---2-----------2/4---4-----------------
E-0---------------------------------------------------------------------


e---/10-10-10-10-10-/10-10-10-/10-10-10-/10-10-10----0----7'---0---0-0--
B---/12-12-12-12-12-/12-12-12-/12-12-12-/12-12-12-10---10-8'---0---0-0--
G-----------------------------------------------------------------------
D-----------------------------------------------------------------------
A-----------------------------------------------------------------------
E-0.----0--0.----0---0.----0---0.----0---0.----0--0.---0--0.-----0-0-0--


e/10-10-10-/10-10-10-/10-10-10-/10-10-10-----10-12--------------0-------
B/12-12-12-/12-12-12-/12-12-12-/12-12-12-/12------\10---10-8'---0-0-0-0-
G-----------------------------------------------------9-----------0-0-0-
D-----------------------------------------------------------------0-0-0-
A-----------------------------------------------------------------------
E-0.----0---0.----0---0.----0---0.----0---0.----0-----------------------


e-------7-6-5----------0-----------7-6-5----5----5-5h6p5-------0---0----
B------x------8'-5---5------------x------8'---8'---------8-5---5---5----
G------x-----------6--------------x--------------------------x----------
D-2.-------------------------2.-----------------------------------------
A-0.-------------------------0.-----------------------------------------
E------------------------0-3--------------------------------------------


e-0-0---0--------------0-0---0-0----------0-2.---5-2h5p2----------------
B-3-0---0--------------0-0-3-0-0---0-3'------------------5-3'-----------
G-----2---2---p0------------------------------------------------4-------
D----------------2------------------------------------------------------
A-----------------------------------------------------------------------
E------------------0----------------------------------------------0---3-


e--------------------------------0-0----0--0----0--0----0--0------------
B----------------------------------------------------------------0---0-0
G------------------------------------------------------------------2---2
D-2.-------2---2-5-4-2-4---2--------------------------------------------
A-0.---3h4---4-----------4---------5-----5-4-----4-3-----3-2---2--------
E----------------------------0------------------------------------------

Verse 3

e-----------------------------------------------------------------------
B-----------------------------------------------------------------------
G-----------------------------------------------------------------------
D---------------------2---2-x-2-4-x-4-2-x-2-4-x-4-----------------------
A-2-x-2-4-x-4-2-x-2-4---0-0-x-0-0-x-0-0-x-0-0-x-0-----------------------
E-0-x-0-0-x-0-0-x-0-0---------------------------------------------------


e-----0-----0-0-0-0-0-------------0-0-x-0-0-----------------------------
B-----0-----0-0-3-0-3-------------0-0-x-0-0-----------------------------
G-------2/4-----------4\2-0---------------------------------------------
D---------------------------2-------------------------------------------
A-2-------------------------------------------2-2-x---------------------
E-0---------------------------0---------------0-0-x---------------------


e-----------------------------------------------------------------------
B-----------------------------------------------------------------------
G-----------------------0-----------------------------------------------
D-x-2-x-2-4-x-4-2-x-2-4-----2-x-2-4-x-4-2-x-2-4-x-4---------------------
A-x-0-x-0-0-x-0-0-x-0-0---0-0-x-0-0-x-0-0-x-0-0-x-0---------------------
E-----------------------------------------------------------------------


e-----0----------------------------0--------------0---------------------
B-----0----------------------------0-2---2-0------0---------------------
G------------------------------------2---2-0h1p0h1------1---------------
D---------------------5-7'-5------------------------2---2---------------
A-2---------2-2-5-/-7--------7----------------------2---2---------------
E-0-----3h4--------------------0-------0------------0---0---------------


e-----0-0---0-0---0-0---------------------------------------------------
B-----0-0---0-0---0-0---------------------------------------------------
G-2---2-2---2-2---2-2---------------------------------------------------
D-1---1-1---1-1---1-1-----2-x-2-4-x-4-2-x-2-4-x-4-----------------------
A-2---2-2---2-2---2-2-----0-x-0-0-x-0-0-x-0-0-x-0-----------------------
E---------------------0-3-----------------------------------------------


e-----0-0----0--0----0--0----0--0----0----------------------------------
B---------------------------------------0---0-0-------------------------
G-----------------------------------------2-----------------------------
D-----------------------------------------------------------------------
A-2----/5-----5-4-----4-3-----3-2-----2---------------------------------
E-0---------------------------------------------------------------------


SOLO 2

e-/12---12--11-12---12--11-12---(12)(11)--10----------------------------
B--------------------------------------------12-11-10.---8'-------------
G-----------------------------------------------------------9.----------
D-----------------------------------------------------------------------
A-----------------------------------------------------------------------
E-----------------------------------------------------------------------


e-/12---12~--11-12~--11-12~--11-12~--11-12~--11-------------------------
B-----------------------------------------------12---11-10.---8---------
G---------------------------------------------------------------9---7-9-
D-----------------------------------------------------------------------
A-----------------------------------------------------------------------
E-----------------------------------------------------------------------


e---------0-0-0-0-0-------------------------0-0.------------------------
B---------0-0-3-0-3-------------8-8---8-8---8-8.------------------------
G-----2/4-----------4\2-0-------7-7---7-7---7-7.------------------------
D-------------------------2-----6-6---6-6-------------------------------
A-2-----------------------------7-7---7-7-------------------------------
E-0-------------------------0-------0-----------------------------------


e-/12-12~---10----------------------------------------------------------
B--------------12\10p8---8'---------------------------------------------
G----------------------9------9-----------------------------------------
D-----------------------------------------------------------------------
A-------------------------------2-2-------------------------------------
E-------------------------------0-0-3-----------------------------------


e------/12-12~--11-12--11-12--11----------------------------------------
B--------------------------------12--11-10--8---------------------------
G---------------------------------------------9--7-9--------------------
D-2.--------------------------------------------------------------------
A-0.--------------------------------------------------------------------
E-----------------------------------------------------------------------


e-------------------------------------0-------------------0-0---0-------
B--------3--5'----3'------------------0-3p2p0-------------0-0-3-0-------
G---2/4--------4-----4--4\2--0------------------2---0h1-----------------
D-------------------------------2-----------------------2---------------
A-----------------------------------------------------------------------
E-0-------------------------------0-------------------------------------


e-2.---5-2h5p2---------------------6-5.---------------------------------
B--------------5-3'-----------------------8'-5-----7---5----------------
G---------------------4--------------------------6----------------------
D-----------------------------2.----------------------------------------
A-----------------------------0.----------------------------------------
E-----------------------0-0-3-------------------------------------------


e------------------------0.---------------------------------------------
B-----3'---------0-------0.----6.---7-----------------------------------
G-2/4------4-2-----0---1-------6.---7-----------------------------------
D------------------------------5.---6-----------------------------------
A------------------------------6.---7-----------------------------------
E----------------------------0------------------------------------------