20130820

ERIC CLAPTON SLOW DOWN LINDA TAB (LEAD PARTS)

Eric Clapton - Slow Down Linda is a cool rock and roll standard in the key of C.
Let's just check out the lead parts of the song.
TAB helps below.



ERIC CLAPTON SLOW DOWN LINDA TAB

PDF >>

0:04

e-----------------------------------------------------------------------
B-----------------------------------------------------------------------
G-5-----7---(9)--------------(9).--(9).--(9).--(9).--(9)(7)-5h7-5---\\\-
D---7-5-----------------------------------------------------------------
A-----------------------------------------------------------------------
E-----------------------------------------------------------------------

Verse 1

0:12

e-----------------------------------------------------------------------
B-----8-10--------------------------------------------------------------
G-7/9------9\7-5-----5~-------------------------------------------------
D----------------7-5------7-5.------------------------------------------
A-----------------------------------------------------------------------
E-----------------------------------------------------------------------



0:20                                                      0:27

e----------------------------------------8~-----------------------------
B-11.------------11--------------------8------------------13.-13~-------
G-------10(12)------(12)-(10)-8-10(12)----------------------------------
D-----------------------------------------------------------------------
A-----------------------------------------------------------------------
E-----------------------------------------------------------------------


0:30                           0:34

e---------------------------------------8-------------------------------
B-13~----------13~--------------------8---11-10-8\6-5-------------------
G-------14.-14-----------------10(12)-----------------7.--(9)-(7)-------
D-----------------------------------------------------------------5~----
A-----------------------------------------------------------------------
E-----------------------------------------------------------------------


Chorus

0:42

e--------6----------6----------6----------------------------------------
B-6(8)-------6(8)-------6(8)-------(8)-(6)-4---6-(8)-(6)-4-6~---p5.-----
G--------------------------------------------5--------------------------
D-----------------------------------------------------------------------
A-----------------------------------------------------------------------
E-----------------------------------------------------------------------


0:50

e-8-------------------------------8.------------------------------------
B---11-----------------------8.-----------------------------------------
G------10(12)(10)-8.---8-(9)--------8h9---------------------------------
D---------------------------------------10~-----------------------------
A-----------------------------------------------------------------------
E-----------------------------------------------------------------------


Chorus

0:54

e-------------------13(15).--(15).--(15).--(15)-(13)~~~------11---------
B---------8.----------------------------------------------------13~-----
G-7-(9)-----------------------------------------------------------------
D-----------------------------------------------------------------------
A-----------------------------------------------------------------------
E-----------------------------------------------------------------------


1:05

e-----------------------------------------------------------------------
B-----------13-----------13-----------13-----------13-------------------
G-15(17)~------15(17)~------15(17)~------15(17)~------15(17)~-----------
D-----------------------------------------------------------------------
A-----------------------------------------------------------------------
E-----------------------------------------------------------------------


Verse 2

1:12

e--------8~----------------------------------8---\\\--------------------
B-11(13)--------------(13)(11)---10-8-----11----------------------------
G-----------------------------------------------------------------------
D-----------------------------------------------------------------------
A-----------------------------------------------------------------------
E-----------------------------------------------------------------------


1:20

e-----------------------------------------------------------------------
B-11(13)-----(13).-(13).-(14).-(15).-(15)-(13)--11----------------------
G--------------------------------------------------12~------------------
D-----------------------------------------------------------------------
A-----------------------------------------------------------------------
E-----------------------------------------------------------------------


1:34

e-----------------------------------------------------------------------
B------8.--8.---8.-------8.---------------------------------------------
G-7(9)----(9).-(9).-7(9)-----(9)(7)-5---\\\-----------------------------
D-------------------------------------------5---------------------------
A-----------------------------------------------------------------------
E-----------------------------------------------------------------------


Chorus 2

1:39

e----------------11---------------8--10--p8--10(12).-(12).-(12).-(12).--
B-11/13~---13~------13~-------------------------------------------------
G-----------------------------------------------------------------------
D-----------------------------------------------------------------------
A-----------------------------------------------------------------------
E-----------------------------------------------------------------------


e-(11).-(11).-(11).-(11).-(10).-(10).-10--p8-10~---\\-------------------
B-----------------------------------------------------------------------
G-----------------------------------------------------------------------
D-----------------------------------------------------------------------
A-----------------------------------------------------------------------
E-----------------------------------------------------------------------


2:04

e-------------8---------------------------------------------------------
B-----------8---11------------------------------------------------------
G-10(12)-----------10(12)(10)-8'----------------------------------------
D----------------------------------10~----------------------------------
A-----------------------------------------------------------------------
E-----------------------------------------------------------------------


2:14                                       2:20

e----------15------------------------------8'---------------------------
B-15(17)--------(17)(15)-13~----------------------11'-----8~------8---8~
G-----------------------------------------------------------------------
D-----------------------------------------------------------------------
A-----------------------------------------------------------------------
E-----------------------------------------------------------------------


chorus 3

2:23

e----------8------------------------------------------------------------
B-----8.-----11/13~-----------------------------------------------------
G-8h9-------------------------------------------------------------------
D-----------------------------------------------------------------------
A-----------------------------------------------------------------------
E-----------------------------------------------------------------------


2:27

e-11'---8----8-8---8----------------------------------------------------
B---------11---------11-8--------11--11---------------------------------
G-------------------------10(12)----(12)(10)-8'-------------------------
D-------------------------------------------------10~-------------------
A-----------------------------------------------------------------------
E-----------------------------------------------------------------------


2:34

e-8.--8------------8-11-8-----------------------------------------------
B-------11'---8-11--------11-8-11-8-------------------------------------
G-----------------------------------10----------------------------------
D-----------------------------------------------------------------------
A-----------------------------------------------------------------------
E-----------------------------------------------------------------------


Solo

e-----------------------------------------------------------------------
B--------8----------8----------8----------8----------8----------8-------
G-10(12)---10(12)-----10(12)-----10(12)-----10(12)-----10(12)-----------
D-----------------------------------------------------------------------
A-----------------------------------------------------------------------
E-----------------------------------------------------------------------


e------------8---------8----------8----------8----------8----------8----
B----------8----------8---------8----------8----------8----------8------
G-10(12)-------10(12)----10(12)-----10(12)-----10(12)-----10(12)--------
D-----------------------------------------------------------------------
A-----------------------------------------------------------------------
E-----------------------------------------------------------------------


e----------8-------------10-------------10----------13------------------
B--------8------------10-------------10----13(15)------(15)(13)---------
G-10(12)-----12(14)---------12(14)--------------------------------------
D-----------------------------------------------------------------------
A-----------------------------------------------------------------------
E-----------------------------------------------------------------------


e-13----------13------------------------------11------------------------
B----(15)(13)----(15)(13)-11----11'---13~--------13~--------------------
G----------------------------12-----------------------------------------
D-----------------------------------------------------------------------
A-----------------------------------------------------------------------
E-----------------------------------------------------------------------


Chorus 3

3:12

e-12(13)----------------12(13)(12)-10----10-----------------------------
B-------------------------------------12----12-(13)---10~-----\\\-------
G-----------------------------------------------------------------------
D-----------------------------------------------------------------------
A-----------------------------------------------------------------------
E-----------------------------------------------------------------------


3:18

e-----------------------------------------------------------------------
B-----------10-----------10-----------10--------10--13--10--------------
G-12-(14)------12-(14)------12-(14)------12(14)-------------12(14)(12)--
D-----------------------------------------------------------------------
A-----------------------------------------------------------------------
E-----------------------------------------------------------------------


                             3:26

e-----------------------------------------------------------------------
B-------13/15~---------------13(15)----------------(13)-10~-------------
G-10--------------------------------------------------------------------
D----12-----------------------------------------------------------------
A-----------------------------------------------------------------------
E-----------------------------------------------------------------------


3:33

e-15----(17).--13(15).---10~------------10--------10--------10--------10
B--------------------------------13(15)----13(15)----13(15)----13(15)---
G-----------------------------------------------------------------------
D-----------------------------------------------------------------------
A-----------------------------------------------------------------------
E-----------------------------------------------------------------------


e--------10--------10--------10~~~~-------------------------------------
B-13(15)----13(15)----13(15)--------------------------------------------
G-----------------------------------------------------------------------
D-----------------------------------------------------------------------
A-----------------------------------------------------------------------
E-----------------------------------------------------------------------


3:49

e-10~-----10~---7.---10----7----10----7------------7--------------------
B-----------------------10---10----10-----------10----------------------
G---------------------------------------9(11)--------9(11)~-------------
D-----------------------------------------------------------------------
A-----------------------------------------------------------------------
E-----------------------------------------------------------------------


e-----------------------------------------------------------------------
B-----------------------------------------------------------------------
G-9---(11)---7-9(11)-7--------------------------------------------------
D----------------------9-9-\-7-5----------------------------------------
A-----------------------------------------------------------------------
E-----------------------------------------------------------------------


3:56

e-------------------------------------------------10--------------------
B-13----------------------------10-------13(15)------10~----------------
G----12'---10-12----10-12(14)------12-10--------------------------------
D----------------12-----------------------------------------------------
A-----------------------------------------------------------------------
E-----------------------------------------------------------------------


4:02

e-----------------------------------------------------------------------
B-13.--13.--13.--13.--13.--13.--13.--13.--13.--13.--12.--12.--11.--11.--
G-14.--14.--14.--14.--14.--14.--14.--14.--14.--14.--13.--13.--12.--12.--
D-----------------------------------------------------------------------
A-----------------------------------------------------------------------
E-----------------------------------------------------------------------


e-----------------------------------------------------------------------
B-10.-----------12.-----------------------------------------------------
G-10.--10h11~-----------------------------------------------------------
D-----------------------------------------------------------------------
A-----------------------------------------------------------------------
E-----------------------------------------------------------------------