20130830

IN FLAMES ACOUSTIC MEDLEY TAB (PLAYED BY HEMO)

You guys know HEMO, he made the famous Pirates of the Caribbean cover.
There is another acoustic cover played by him, it's an In Flames Acoustic Medley.
Its recorded with 3 guitars, so sometimes you can here more than one guitar line.
See TAB below.


IN FLAMES ACOUSTIC MEDLEY TAB                            

PDF >>

Part 1

e---------------------------5~------------------------------------------
B---------------------------------8~----6~---8~--6~--5~-----------------
G-5-----5-----7/9-5-----7/9------------------------------7--------------
D---7-----7---------7---------------------------------------------------
A-0---0-----0---------0-------------------------------------------------
E-----------------------------------------------------------------------


e---------------------------5~------------------------------------------
B---------------------------------8~----6~---8~--6~--5~-----------------
G-5-----5-----7/9-5-----7/9------------------------------7--------------
D---7-----7---------7---------------------------------------------------
A-----0-----0---------0-------------------------------------------------
E-----------------------------------------------------------------------



Part 2

e-----------------------------------------------------------------------
B-5~--------------5-6---5h6p5-------------------------------------------
G-------7~------7-------------7---5-------------------------------------
D-----------------------------------------------------------------------
A-----------------------------------------------------------------------
E-----------------------------------------------------------------------


e-----------------------------------------------------------------------
B-----5---6-6/8---6-5h6p5-------5---------------------------------------
G-5-7---5-----------------7-5-----7-------------------------------------
D-----------------------------7-----------------------------------------
A-----------------------------------------------------------------------
E-----------------------------------------------------------------------


e-----------------------------------------------------------------------
B-5~--------------5-6---5h6p5-------------------------------------------
G-------7~------7-------------7---5-------------------------------------
D-----------------------------------------------------------------------
A-----------------------------------------------------------------------
E-----------------------------------------------------------------------


e-----------------------------------------------------------------------
B-----5---6-6/8---6-5h6p5-------5---------------------------------------
G-5-7---5-----------------7-5-----7-------------------------------------
D-----------------------------7-----------------------------------------
A-----------------------------------------------------------------------
E-----------------------------------------------------------------------


Part 1 again

e---------------------------5~------------------------------------------
B---------------------------------8~----6~---8~--6~--5~-----------------
G-5-----5-----7/9-5-----7/9------------------------------7--------------
D---7-----7---------7---------------------------------------------------
A-----0-----0---------0-------------------------------------------------
E-----------------------------------------------------------------------


e---------------------------5~------------------------------------------
B---------------------------------8~----6~---8~--6~--5~-----------------
G-5-----5-----7/9-5-----7/9------------------------------7--------------
D---7-----7---------7---------------------------------------------------
A-----0-----0---------0-------------------------------------------------
E-----------------------------------------------------------------------


Part 3

e-----------------------------------------------------------------------
B-----------------------------------------------------------------------
G-----------------------------------------------------------------------
D---7---10---9---5---3---7---5---9--------------------------------------
A-0---0----0---0---0---0---0---0----------------------------------------
E-----------------------------------------------------------------------


e-----------------------------------------------------------------------
B-----------------------------------------------------------------------
G-----------------------------------------------------------------------
D---7---10---9---5---3---7---5-3h5p3-2----------------------------------
A-0---0----0---0---0---0---0--------------------------------------------
E-----------------------------------------------------------------------


e-----------------------------------------------------------------------
B-----------------------------------------------------------------------
G-----------------------------------------------------------------------
D---7---10---9---5---3---7---5---9--------------------------------------
A-0---0----0---0---0---0---0---0----------------------------------------
E-----------------------------------------------------------------------


e-----------------------------------------------------------------------
B-----------------------------------------------------------------------
G-----------------------------------------------------------------------
D---7---10---9---5---3---7---5---3--------------------------------------
A-0---0----0---0---0---0---0---0----------------------------------------
E-----------------------------------------------------------------------


Part 4

e-----------------------------------------------------------------------
B-----------------------------------------------------------------------
G-------------------------4~--2~------------------0---2-4-4-2h4p2-0--2--
D-----2-4-4/5-5~------2-2-------------2-4-4/5-5~------------------------
A---2---------------2---------------2-----------------------------------
E-0---------------0---------------0-------------------------------------


e-----------------------------------------------------------------------
B-----------------------------------------------------------------------
G-------------------------4~--2~------------------0---2-4-4-2h4p2-0--2--
D-----2-4-4/5-5~------2-2-------------2-4-4/5-5~------------------------
A---2---------------2---------------2-----------------------------------
E-0---------------0---------------0-------------------------------------


Part 5

e-------2---0.--7~------------------------------------------------------
B---------0---------10~--8~--7------------------------------------------
G------------------------------9-7-5\4-4~-------------------------------
D-----2----------------------------------------9---10-7-9----7----------
A---2-----------------------------------------------------10---9-10-----
E-0---------------------------------------------------------------------


e-------2---0.--7~-------10~--8~--10-8\7-7~------7~--7h8----7-----------
B---------0---------10.----------------------------------10---8-10-7-8--
G-----------------------------------------------------------------------
D-----2-----------------------------------------------------------------
A---2-------------------------------------------------------------------
E-0---------------------------------------------------------------------


e-----------------------------------------------------------------------
B-8~----7~--------------------------8-7---------------------------------
G-------------7---5-7-7/9-9~------------7-------------------------------
D-----------------------------------------7~----------------------------
A---------------------------------------------10~---9-------------------
E-----------------------------------------------------------------------


Part 4 again

e-----------------------------------------------------------------------
B-----------------------------------------------------------------------
G-------------------------4~--2~------------------0---2-4-4-2h4p2-0--2--
D-----2-4-4/5-5~------2-2-------------2-4-4/5-5~------------------------
A---2---------------2---------------2-----------------------------------
E-0---------------0---------------0-------------------------------------


e-----------------------------------------------------------------------
B-----------------------------------------------------------------------
G-------------------------4~--2~------------------0---2-4-4-2h4p2-0--2--
D-----2-4-4/5-5~------2-2-------------2-4-4/5-5~------------------------
A---2---------------2---------------2-----------------------------------
E-0---------------0---------------0-------------------------------------


The End

e-------0-0-------0-----------------------------------------------------
B-----------0-----0-----------------------------------------------------
G-----0-------0---0-----------------------------------------------------
D---------------2-2-----------------------------------------------------
A---2-------------2-----------------------------------------------------
E-0---------------0-----------------------------------------------------