20130827

AMERICAN NATIONAL ANTHEM TAB (COVER BY SLASH ON SUPERBOWL)

Slash plays the American National Anthem on his signature Cry Baby Wah Pedal. Alright, it may have not been his best but at least he gets some ovation at the end ...
Be Slash for 2 minutes and play the american national anthem with an electric guitar.
See the TAB below.


SLASH NATIONAL ANTHEM TAB                         

PDF >>

e-----------------------------------------------------------------------
B-----------------------------------5~----------------------------------
G-4~---1----------1~-------4~-------------------------------------------
D--------2~-------------------------------------------------------------
A-----------------------------------------------------------------------
E-----------------------------------------------------------------------


e-----------------------------------------------------------------------
B-7(9)---7-5~-----------------------------------------------------------
G-----------------1~-----3-----(4)~-------------------------------------
D-----------------------------------------------------------------------
A-----------------------------------------------------------------------
E-----------------------------------------------------------------------



e-----------------------------------------------------------------------
B--------7(9)-------7-5-----h7p5-4~------\\\----------------------------
G-4~---4----------------------------------------------------------------
D-----------------------------------------------------------------------
A-----------------------------------------------------------------------
E-----------------------------------------------------------------------


e-----------------------------------------------------------------------
B-2~---4-5~-----5~------------------------------------------------------
G----------------------4~-----1~------------/4~-----1--------1~-----4~--
D------------------------------------2~---------------2~----------------
A-----------------------------------------------------------------------
E-----------------------------------------------------------------------


e-----------------------------------------------------------------------
B-5~--------------------------------------------------------------------
G-----------------------------------------------------------------------
D-----------------------------------------------------------------------
A-----------------------------------------------------------------------
E-----------------------------------------------------------------------


e-----------------------------------------------------------------------
B-7(9)~-------7-5~------------------------------------------------------
G----------------------1~-----3~-----4~---------------------------------
D-----------------------------------------------------------------------
A-----------------------------------------------------------------------
E-----------------------------------------------------------------------


e-----------------------------------------------------------------------
B--------7(9)~-----------7-5-----(7)-(5)-4~-----------------------------
G-4~---4----------------------------------------------------------------
D-----------------------------------------------------------------------
A-----------------------------------------------------------------------
E-----------------------------------------------------------------------


e-----------------------------------------------------------------------
B-2---h4---(5)~-----(5)~------------------------------------------------
G--------------------------------4~-----1~------------------------------
D----------------------------------------------2~-----------------------
A-----------------------------------------------------------------------
E-----------------------------------------------------------------------


e-----------------------------------------------------------------------
B-9~---9-9~-----10---(12)~-----(12)~------------------------------------
G-----------------------------------------------------------------------
D-----------------------------------------------------------------------
A-----------------------------------------------------------------------
E-----------------------------------------------------------------------


e-----------------------------------------------------------------------
B-(10)---(9)-7~-----9~-----(10)~-----(10)~------------------------------
G-----------------------------------------------------------------------
D-----------------------------------------------------------------------
A-----------------------------------------------------------------------
E-----------------------------------------------------------------------


e-----------------------------------------------------------------------
B-10~-------9~-----7-\-5~-------4~--------------------------------------
G-----------------------------------------------------------------------
D-----------------------------------------------------------------------
A-----------------------------------------------------------------------
E-----------------------------------------------------------------------


e-----------------------------------------------------------------------
B-2~---4-5~-------------------------------------------------------------
G-----------------1~-------3~--------4~---------------------------------
D-----------------------------------------------------------------------
A-----------------------------------------------------------------------
E-----------------------------------------------------------------------


e-----------------------------------------------------------------------
B--------5~-----5~-----5-\-4-2~-------2~-------2.-----------------------
G-4~---4----------------------------------------------------------------
D-----------------------------------------------------------------------
A-----------------------------------------------------------------------
E-----------------------------------------------------------------------


e-----------------------------------------------------------------------
B-7~---(10)-(9)-7-\-5-5-----(7)-(5)-4~----------------------------------
G-----------------------------------------------------------------------
D-----------------------------------------------------------------------
A-----------------------------------------------------------------------
E-----------------------------------------------------------------------


e-----------------------------------------------------------------------
B--------5~-------7---9---10---10(12)~~---------------------------------
G-4~---4----------------------------------------------------------------
D-----------------------------------------------------------------------
A-----------------------------------------------------------------------
E-----------------------------------------------------------------------


e-----------------------------------------------------------------------
B-7~---7-/-9-9(10)~--------------------9.---7h9p7h9p7h9p7h9p7h9p7h9p7\5-
G-----------------------------------------------------------------------
D-----------------------------------------------------------------------
A-----------------------------------------------------------------------
E-----------------------------------------------------------------------


e-----------------------------------------------------------------------
B-5.---5~---------------------------------------------------------------
G-----------------------------------------------------------------------
D-----------------------------------------------------------------------
A-----------------------------------------------------------------------
E-----------------------------------------------------------------------