20130830

SHALL NEVER SURRENDER TAB (FINGERSTYLE GUITAR COVER BY SANAN FIKRIZ)

Sanan Fikriz plays a nice fingerstyle guitar cover of "Shall Never Surrender"
See the TAB below.



SHALL NEVER SURRENDER TAB                          

PDF >>

e---------0-------------------------------------------------------------
B-3---------------------------------------------------------------------
G-----------------------------------------------------------------------
D-----------------------------------------------------------------------
A-----------------------------------------------------------------------
E-----------------------------------------------------------------------


e-1-----------1-3-----0--------------------------------------------0----
B-3-------3-------1-------3---1.---3-------3---1.---1----------3--------
G-2---2-----------0----------------3-------3--------2-------2.----------
D-0------------------------------------3----------------3---------------
A-----------------3----------------1------------------------------------
E---------------------------------------------------1-------------------



e-1-------1---1.---8---5.---1--------1-------1----------------5---8.----
B-3-------3--------5------------1.---3-------3-------3--------5---------
G-2---2------------5-----------------3-------3-------3------------------
D-0--------------------------------------3-------3---3---3.-------------
A------------------0-----------------1----------------------------------
E-----------------------------------------------------------------------


e-6-------6---8---6---5--------------------1-------1---0---0---1.-------
B-3-------3-------3-------6--------3-------3----------------------------
G-3---3-----------3-----------5.---3-------3----------------------------
D-5---------------3--------------------3-------3------------------------
A----------------------------------1---------------3-------4------------
E-----------------------------------------------------------------------


e-1-----------0-1-0-----------------------------------------------------
B---------3---------------1-------3-------3-------3-------5-------------
G-----2---------------0-------0-----------3-------3-------5-------------
D-0-----------------------------------3---3---3-------3---5-------------
A-----------------3---------------1-------------------------------------
E-----------------------------------------------------------------------


e-1-----------1-3-----0------------------------3.-----------------0-----
B-3-------3-------1-------3---1.---3-------3--------1-------1-3---------
G-2---2-----------0----------------3-------3--------2-----2-------------
D-0------------------------------------3---3------------3---------------
A-----------------3----------------1------------------------------------
E---------------------------------------------------1-------------------


e-1-------1---1.---8---5.---1--------1-------1----------------5---8.----
B-3-------3--------5------------1.---3-------3-------3--------5---------
G-2---2------------5-----------------3-------3-------3------------------
D-0--------------------------------------3-------3---3---3.-------------
A------------------0-----------------1----------------------------------
E-----------------------------------------------------------------------


e-6-----------6-8-6---5--------------------1-------1---0---0---1.-------
B-3-------3-------3-------6--------3-------3----------------------------
G-3---3-----------3-----------5.---3-------3----------------------------
D-5---------------3--------------------3-------3------------------------
A----------------------------------1---------------3-------4------------
E-----------------------------------------------------------------------


e-1-----------0-1-0-----------------------------------------------------
B---------3---------------1-------3-------3-------3-------5-------------
G-----2---------------0-------0-----------3-------3-------5-------------
D-0-----------------------------------3---3---3-------3---5-------------
A-----------------3---------------1-----------------------3-------------
E-----------------------------------------------------------------------


e-----------------2---------------2---5.-----2--------------------------
B-------------3---------------3--------------3--------------------------
G---------2---------------2------------------2--------------------------
D-----2---------------2----------------------0--------------------------
A-5---------------------------------------------------------------------
E-----------------------------------------------------------------------