20130806

STAIRWAY TO HEAVEN TAB (INSTRUMENTAL COVER BY MARCELLO CALABRESE)

Marcello Calabrese makes an incredible cover of Led Zeppelin - Stairway To Heaven.
He uses the backing track of the song and plays the main melody with "some" of his own ideas on a Stratocaster. There is a complete TAB below.



MARCELLO CALABRESE STAIRWAY TO HEAVEN TAB          

PDF >>

Part 1

e-----------------------------------------------------------------------
B-13~-------15.---12.---13.---10.---12.---8.---10.---7.---8~---p7.------
G-----------------------------------------------------------------------
D-----------------------------------------------------------------------
A------  play with the volume  ----  play with the volume  -------------
E-----------------------------------------------------------------------


e-----------------------------------------------------------------------
B-7~---p5.---5p3.---3p1.---1~---p0--------0-------------19(21)~~~-------
G------------------------------------2~---------------------------------
D-----------------------------------------------------------------------
A------  play with the volume  ----  play with the volume  -------------
E-----------------------------------------------------------------------



e-19(21)(19).-----------------------15----------------------------------
B---------------19(21)(19).---------16(17)-----------(15).--------------
G-----------------------------------------------------------------------
D-----------------------------------------------------------------------
A--------------------------------- volume ------------------------------
E-----------------------------------------------------------------------


Part 2 (0:25 - 1:56)

e-----------------------------------------------------------------------
B-5---------------7--------------10-------8---6---5---------------------
G-----------------------------------------9-----------------------------
D-5---------------7--------------10---------------5---------------------
A-----------------------------------------------------------------------
E-----------------------------------------------------------------------


e-----8---------------7-------------------------------------------------
B-8.----------------------------------8---7---7-------------------------
G-----9---------------7-------------------------------------------------
D-9.----------------------------------9---7---7-------------------------
A-----------------------------------------------------------------------
E-----------------------------------------------------------------------


e---------5---3---3---2-----------5-------8.--7.--8---------------------
B-5-----------------------5---3-----------------------------------------
G---------5---4---4---2-----------5-------9.--7.--9---------------------
D-5-----------------------5---4-----------------------------------------
A-----------------------------------------------------------------------
E-----------------------------------------------------------------------


e-10.--12---------------10---------------3---5---5----------------------
B-----------------------------------------------------------------------
G-11.--12---------------11---------------4---5---5----------------------
D-----------------------------------------------------------------------
A-----------------------------------------------------------------------
E-----------------------------------------------------------------------


e-----------------------------------------------------------------------
B-----------------------------------------------------------------------
G-----4---5~---------4-----4~-----------4-5------7---5---4h5p4----------
D-7----------------------7------------7------------------------7--------
A-----------------------------------------------------------------------
E-----------------------------------------------------------------------


e-----------------------------------------------------------------------
B-----------------------------------------------------------------------
G-5---h7-7/9~----------7---5-4h5p4--------------------------------------
D----------------------------------7-------4/5---5---h7---7~------------
A-----------------------------------------------------------------------
E-----------------------------------------------------------------------


e-----------------------------------------------------------------------
B-----------------------------------------------------------------------
G-----4---5~---------4-----4h5p4~---------4-5-----5-7---5---4h5p4-------
D-7----------------------7--------------7-------------------------7-----
A-----------------------------------------------------------------------
E-----------------------------------------------------------------------


e-----------------------------------------------------------------------
B-----------------------------------------------------------------------
G-5---h7-7/9~----------7---5-4h5p4--------------------------------------
D----------------------------------7-------4/5---5---h7---7~------------
A-----------------------------------------------------------------------
E-----------------------------------------------------------------------


e-----------------------------------------------------------------------
B-----------------------------------------------------------------------
G-5~---------7/9---7~------------6/7-------5---4---5~-------------------
D-----------------------------------------------------------------------
A-----------------------------------------------------------------------
E-----------------------------------------------------------------------


e-----------------------------------------------------------------------
B-----------------5-----------------------------------------------------
G-----4---5---7-------7---7-5-4-----------------------------------------
D-7-----------------------------------5-5p4-7~--------------------------
A-----------------------------------------------------------------------
E-----------------------------------------------------------------------


e-----------------------------------------------------------------------
B-----------------------------------------------------------------------
G-----4---5~---------4-----4h5p4~---------4-5------7---5---4h5p4--------
D-7----------------------7--------------7------------------------7------
A-----------------------------------------------------------------------
E-----------------------------------------------------------------------


e-----------------------------------------------------------------------
B-----------------------------------------------------------------------
G-5---h7-7/9~----------7---5-4h5p4--------------------------------------
D----------------------------------7------4/5---5---h7---7~-------------
A-----------------------------------------------------------------------
E-----------------------------------------------------------------------


e-----------------------------------------------------------------------
B-----------------------------------------------------------------------
G-----4---5~---------4-----4~-----------4-5------7---5---4h5p4----------
D-7----------------------7------------7------------------------7--------
A-----------------------------------------------------------------------
E-----------------------------------------------------------------------


e-----------------------------------------------------------------------
B-----------------------------------------------------------------------
G-5---7---7/9~----------7p5-7/9---7~-------5.---------------------------
D---------------------------------------------/5---h7---7~--------------
A-----------------------------------------------------------------------
E-----------------------------------------------------------------------


Part 3 (1:56 - 2:33)

e-----------------------------------------------------------------------
B-15(17)~~~------------17(19)~-------18(20)~-------20(22)~--------------
G-----------------------------------------------------------------------
D-----------------------------------------------------------------------
A------  play with the volume  ----  play with the volume  -------------
E-----------------------------------------------------------------------


e-----------------------------------------------------------------------
B-<12>---~~~--------------------------<7>-------~~~---------------------
G-<12>---~~~--------------------------<7>-------~~~---------------------
D-<12>---~~~--------------------------<7>-------~~~---------------------
A-----------------------------------------------------------------------
E-----------------------------------------------------------------------


e-----2-----3-----5-----7-----8------10~--------------------------------
B-----------------------------------------------------------------------
G-0h2---2/4---4/5---5/7---7/9---9/11------------------------------------
D-----------------------------------------------------------------------
A-----------------------------------------------------------------------
E-----------------------------------------------------------------------


e--------------------------8-----------7-------8------10----------------
B-----------------------------------------------------------------------
G---------------------/9-----------9\7-----7/9---9/11-------------------
D-0-0-4---0-5---0-7-----------------------------------------------------
A-----------------------------------------------------------------------
E-----------------------------------------------------------------------


e----14----12----10----8---7---5---3---2--------------------------------
B-15----13----12----10---8---7---5---3-3--------------------------------
G-----------------------------------------------------------------------
D-----------------------------------------------------------------------
A-----------------------------------------------------------------------
E-----------------------------------------------------------------------


e--------------------------8-----------7-------8------10----------------
B-----------------------------------------------------------------------
G---------------------/9-----------9\7-----7/9---9/11-------------------
D-0-0-4---0-5---0-7-----------------------------------------------------
A-----------------------------------------------------------------------
E-----------------------------------------------------------------------


Part 4 (2:33 - 2:58)

e-----------------------------------------------------------------------
B-----------------------------------------------------------------------
G-------4---5~--------4-----4h5p4~------------4-5-------7---5---4h5p4---
D-6/7---------------------7---------------6/7-------------------------7-
A-----------------------------------------------------------------------
E-----------------------------------------------------------------------


e------------------------------------------------------5-----7-----8----
B-----------------------------------------------------------------------
G-5---7---7/9~--------7---5-4h5p4-----------------/5-----5/7---7/9------
D---------------------------------7-------4/5---x-----------------------
A-----------------------------------------------------------------------
E-----------------------------------------------------------------------


e-----------------------------------------------------------------------
B-----------------------------------------------------------------------
G-----4---5~--------4-----4h5p4~--------------4-5-----5-7---5---4h5p4---
D-7---------------------7---------------6/7---------------------------7-
A-----------------------------------------------------------------------
E-----------------------------------------------------------------------


e------------------------------------------------------5-----7-----8----
B-----------------------------------------------------------------------
G-5---7---7/9~--------7---5-4h5p4-----------------/5-----5/7---7/9------
D---------------------------------7-------4/5---x-----------------------
A-----------------------------------------------------------------------
E-----------------------------------------------------------------------


Part 5 (2:58 - 3:24)

e-------------3---------------3-----------------------------------------
B-----------------3---------------3-------------------------------------
G---------------------0---------------0---------------------------------
D-----------------------------------------------------------------------
A-0---2---3---------------2---------------------------------------------
E-----------------------------------------------------------------------


e-----2-----3-----5-----7-----8------10-------12---10---12---14---12----
B-----------------------------------------------------------------------
G-0h2---2/4---4/5---5/7---7/9---9/11----11/12---12---11---12---14---12--
D-----------------------------------------------------------------------
A-----------------------------------------------------------------------
E-----------------------------------------------------------------------


e-14---15---14---12---10---12---10---8----------------------------------
B-----------------------------------------------------------------------
G---14---16---14---12---11---12---11-9----------------------------------
D-----------------------------------------------------------------------
A-----------------------------------------------------------------------
E-----------------------------------------------------------------------


e-----------------------------------------------------------------------
B-20~-------22.---19.---20.---17.---19.---15.---17.---13.---15.---12.---
G-----------------------------------------------------------------------
D-----------------------------------------------------------------------
A------  play with the volume  ----  play with the volume  -------------
E-----------------------------------------------------------------------


e-----------------------------------------------------------------------
B-13.---10.---12~---p10.---------------8h10p8.-----8p7.-----7~---p5.----
G-----------------------------------------------------------------------
D-----------------------------------------------------------------------
A------  play with the volume  ----  play with the volume  -------------
E-----------------------------------------------------------------------


e-8---------------------------------------------------------------------
B-9(10)----------(9)------------------<12>------------------------------
G-------------------------------------<12>------------------------------
D-------------------------------------<12>------------------------------
A------  play with the volume  -----------------------------------------
E-----------------------------------------------------------------------


Part 6 (3:24 - 3:48)

e-----------------------------------------------------------------------
B-----------------------------------------------------------------------
G-------4---5~--------4-----4h5p4~----------4-5-------7---5---4h5p4-----
D-6/7---------------------7---------------7-------------------------7---
A-----------------------------------------------------------------------
E-----------------------------------------------------------------------


e------------------------------------------------------8---7---5--------
B-----------------------------------------------------------------------
G-5---7---7/9~--------7---5-4h5p4-------------------/9---7---5----------
D---------------------------------7-------4/5---x-----------------------
A-----------------------------------------------------------------------
E-----------------------------------------------------------------------


e-----------------------------------------------------------------------
B-----------------------------------------------------------------------
G-----4---5~--------4-----4h5p4~------------4-5-------7---5---4h5p4-----
D-7---------------------7---------------6/7-------------------------7~--
A-----------------------------------------------------------------------
E-----------------------------------------------------------------------


e-----------------------------------------------------------------------
B-----------------------------------------------------------------------
G-5---7---7/9~----------7---5-7/9.---7---5.-----------------------------
D---------------------------------------------/5-------7~---------------
A-----------------------------------------------------------------------
E-----------------------------------------------------------------------


Part 7 (3:48 - 4:15)

e-------------3---------------3-----------------------------------------
B-----------------3---------------3-------------------------------------
G---------------------0---------------0---------------------------------
D-----------------------------------------------------------------------
A-0---2---3---------------2---------------------------------------------
E-----------------------------------------------------------------------


e---2---3---5---7----8----10----12----14~-------------------------------
B-3---5---7---8---10---12----13----15-----------------------------------
G-----------------------------------------------------------------------
D-----------------------------------------------------------------------
A-----------------------------------------------------------------------
E-----------------------------------------------------------------------


e--------------------------8-----------7-------8------10----------------
B-----------------------------------------------------------------------
G---------------------/9-----------9\7-----7/9---9/11-------------------
D-0-0-4---0-5---0-7-----------------------------------------------------
A-----------------------------------------------------------------------
E-----------------------------------------------------------------------


e-----------------------------------------------------------------------
B-15(17)~~~-------------17(19)~-----18(20)~---------20(22)---(20).------
G-----------------------------------------------------------------------
D-----------------------------------------------------------------------
A------  play with the volume  ----  play with the volume  -------------
E-----------------------------------------------------------------------


e--------------------------20(22)(20).----------------------------------
B-20(22)(20)p17.-------------------------20(22)(20).--------------------
G------------------------------------------------------19(22)(19).------
D-----------------------------------------------------------------------
A------  play with the volume  ----  play with the volume  -------------
E-----------------------------------------------------------------------


e--------------------15-------------------------------------------------
B--------------------16(17)~~~------------------------------------------
G-----------------------------------------------------------------------
D-19(21)(19).-----------------------------------------------------------
A-----------------------------------------------------------------------
E------  play with the volume  ----  play with the volume  -------------


Part 8 (4:15 - 4:44)

e-----------------------------------------------------------------------
B-----------------------------------------------------------------------
G-8h9---7---5---5h7~---5~-----------------5'----------------------------
D-------------------------------7.---7~----------7-7p5-7~---------------
A-----------------------------------------------------------7~----------
E-----------------------------------------------------------------------


e-------------------------------------8p7p5-----------------------------
B-4/5.---5---7/8---7---5--------------------8p6p5-----------------------
G-4/5.---5---8/9---7---5--------------------------7p5-7(9)(7)p5---5h7p5~
D--------------------------7p5----------------------------------7-------
A-----------------------------------------------------------------------
E-----------------------------------------------------------------------


e-----------------------------------------------------------------------
B-/8-----7---\5-7-------------------------------------------------------
G-/9-----7---\5-7---5~--------------5'----------------------------------
D----------------------------7.-7----------7-7p5-7~---------------------
A-----------------------------------------------------7~----------------
E-----------------------------------------------------------------------


e-----------------------------------------------------------------------
B-4/5.---5---6/8---7---5------------------------------------------------
G-4/5.---5---7/9---7---5--------/5'-------------------------------------
D--------------------------7.-----------7~------------------------------
A-----------------------------------------------------------------------
E-----------------------------------------------------------------------


e-------------3-------------------3-------2-----------------------------
B-----------------3-------------------3---3-----------------------------
G---------------------0-------0-----------2-----------------------------
D-----------------------------------------0-----------------------------
A-0---2.--3---------------2---------------------------------------------
E-----------------------------------------------------------------------


Part 9

e-----------------------------------------------------------------------
B-----------------------------------------------------------------------
G-5------------<5>-----<7>-----<12>---------///-\\\---------------------
D-5---------------------------------------------------------------------
A-3---------------------------------------------------------------------
E-----------------------------------------------------------------------


e-----------------------------------------------------------------------
B-----------------------------------------------------------------------
G-7-7-7--------------------------------------7-7---7-7------------------
D-7-7-7--------------------------------------7-7---7-7------------------
A-5-5-5--------------------------------------5-0---0-5------------------
E-----------------------------------------------------------------------


e-----------------------------------------------------------------------
B-----------------------------------------------------------------------
G-5---------------------------------------------------------------------
D-5---------------------------------------------------------------------
A-3---------------------------------------------------------------------
E-----------------------------------------------------------------------


Solo

e-------------------5---------------------------------------------------
B---------------------8-5-----------------------------------------------
G-7(9)~~~-----------------7-5---7-5-------------------------------------
D-----------------------------7-----7p5---------------------------------
A---------------------------------------8~------------------------------
E-----------------------------------------------------------------------


e---------8.---8.---8(10)-------8---5--------------8---10p8-------------
B-8(10)---------------------------------8/10~---------------10-8---8h10~
G----------------------------------------------------------------9------
D-----------------------------------------------------------------------
A-----------------------------------------------------------------------
E-----------------------------------------------------------------------


e--------5--------------------------------------------------------------
B----------8-5----------------------------------------------------------
G-7(9)---------7-5---7-5--------------5---5---5~------------------------
D------------------7-----7-5---5-7~-----7---x---------------------------
A----------------------------7------------------------------------------
E-----------------------------------------------------------------------


e-5-------------------------------------------------------------8.------
B---8-5---5---------------------------6---------------8h10-8h10---------
G-------7-----7-5-------------------5---7p5---5-7/9---------------------
D-----------7-----7-5-7p5------/7-----------7---------------------------
A-------------------------8-\-------------------------------------------
E-----------------------------------------------------------------------


e-10(12)---10-8-10-8.---15(17)---15-13----------------------------------
B--------------------------------------15(17)---(15)p13----13-----------
G-------------------------------------------------------14--------------
D-----------------------------------------------------------------------
A-----------------------------------------------------------------------
E-----------------------------------------------------------------------


e-----------------------------------------------------------------------
B-15(17)---(15)p13----13-15(17)---(15)p13----13-15(17)---(15)p13----13--
G------------------14---------------------14---------------------14-----
D-----------------------------------------------------------------------
A-----------------------------------------------------------------------
E-----------------------------------------------------------------------


e-----------------------------------------------------------------------
B-15(17)---(15)p13----13-15(17)---(15)p13----13-15(17)---(15)p13----13--
G------------------14---------------------14---------------------14-----
D-----------------------------------------------------------------------
A-----------------------------------------------------------------------
E-----------------------------------------------------------------------


e-----------------------------------------------------------------------
B-15(17)---(15)p13----13-15(17)---(15)p13----13-15(17)---(15)p13----13--
G------------------14---------------------14---------------------14-----
D-----------------------------------------------------------------------
A-----------------------------------------------------------------------
E-----------------------------------------------------------------------


e-15(17)~~~----------12h15p12------------------------15-----------------
B-----------------------------15p13----13-15(17)--------(17)(15)p13-----
G-----------------------------------14------------------------------14~\
D-----------------------------------------------------------------------
A-----------------------------------------------------------------------
E-----------------------------------------------------------------------


e------5-----------5-----------5-8p7p5-------8p7p5-------10p8p7---------
B-/5-----5-8(10)-----8(10)-------------8p7p5-------8p7p5--------10p8p7--
G-----------------------------------------------------------------------
D-----------------------------------------------------------------------
A-----------------------------------------------------------------------
E-----------------------------------------------------------------------


e----------------------------------------5-5-----5-5-----5-5-----5-5----
B-8/10~-------8-10-----------------------5-5-----5-5-----5-5-----5-5----
G------------------\9---5---7---5-7(9)-------7(9)----7(9)----7(9)-------
D-------------------------7---7-----------------------------------------
A-----------------------------------------------------------------------
E-----------------------------------------------------------------------


e-----5-5---------------------------------------------------------------
B-----5-5---------------------------------------------------------------
G-7(9)----7(9)-----(7)-\\\----------------------------------------------
D-----------------------------------------------------------------------
A-----------------------------------------------------------------------
E-----------------------------------------------------------------------


e-----------------------------------------------------------------------
B-15(17)---------(17)-(17)-(17)-(17)-(17)-(17)-(17)-(17)-(17)-(17)-(17)-
G-----------------------------------------------------------------------
D-----------------------------------------------------------------------
A-----------------------------------------------------------------------
E-----------------------------------------------------------------------


e-----------------------------------------------------------------------
B-17(19)---(19)-(19)-(19)-(19)-(19)-(19)-(19)-(19)----------------------
G-----------------------------------------------------------------------
D-----------------------------------------------------------------------
A-----------------------------------------------------------------------
E-----------------------------------------------------------------------


e-----------------------------------------------------------------------
B-18(20)---(20)-(20)-(20)-(20)-(20)-(20)-(20)-(20)----------------------
G-----------------------------------------------------------------------
D-----------------------------------------------------------------------
A-----------------------------------------------------------------------
E-----------------------------------------------------------------------


e-----------------------------------------------------------------------
B-20(22)---(22)-(22)-(22)-(22)-(22)-(22)-(22)-(22)-(22)-(22)-(22)-(22)--
G-----------------------------------------------------------------------
D-----------------------------------------------------------------------
A-----------------------------------------------------------------------
E-----------------------------------------------------------------------


e-----------------------------------------------------------------------
B-(22)-(22)-(22)-(22)-(22)-(22)-(22)-(22)-(22)-(22)-(22)-(22)-(22)-(22)-
G-----------------------------------------------------------------------
D-----------------------------------------------------------------------
A-----------------------------------------------------------------------
E-----------------------------------------------------------------------


e-----------------------------------------------------------------------
B-(22)(20)---(22)(20)---20(22)~~~---\\\---------------------------------
G-----------------------------------------------------------------------
D-----------------------------------------------------------------------
A-----------------------------------------------------------------------
E-----------------------------------------------------------------------


Part 10

e-----------------------------------------------------------------------
B-----------------------------------------------------------------------
G-----------------------------------------------------------------------
D-7.--7-------x---5.--5-----------------------------1/2---2-0-----------
A-7.--7-------x---5.--5-----------------0---0-3---3-------------3-------
E-5.--5-------x-0-3.--3-------0---1---1---------------------------------


e-----------------------------------------------------------------------
B-----------------------------------------------------------------------
G-----------------------------------------------------------------------
D-7.--7-------x---5.--5-----------------------------1/2---2-0-----------
A-7.--7-------x---5.--5-----------------0---0-3---3-------------3-------
E-5.--5-------x-0-3.--3-------0---1-1-1---------------------------------


e-----------------------------------------------------------------------
B-----------------------------------------------------------------------
G-----------------------------------------------------------------------
D-7.--7-------x---5.--5-----------------------------1/2---2-0-----------
A-7.--7-------x---5.--5-----------------0---0-3---3-------------3-------
E-5.--5-------x-0-3.--3-------0---1---1---------------------------------


e-----------------------------------------------------------------------
B-----------------------------------------------------------------------
G----------------------------------<5>-----<7>-----<12>-----------------
D-7.--7-------x---5-------------<5>-------------------------------------
A-7.--7-------x---5-----------------------------------------------------
E-5.--5-------x-0-3-----------------------------------------------------


e-----------------------------------------------------------------------
B-----------------------------------------------------------------------
G-------------------------2.---------------------4h5h7------------------
D-------------------2h3h5------------------3h5h7------------------------
A-------------2h3h5------------------3h5h7------------------------------
E-0-----1h3h5------------------3h5h7------------------------------------


e-----------------------------------------------------------------------
B-----------------------------------------------------------------------
G-------------------5h7h9----------------------7h9h10-------------------
D-------------5h7h9---------------------7h9h10--------------------------
A-------5h7h8--------------------7h8h10---------------------------------
E-5h7h8-------------------7h8h10----------------------------------------


e-----------------------------------------------------------------------
B-----------------------------------------------------------------------
G-------------------------9h10h12~--------------------------------------
D-----------------9h10h12-----------------------------------------------
A---------8h10h12-------------------------------------------------------
E-8h10h12---------------------------------------------------------------


e-----------------------------------------------------------------------
B-13(15)-------13(15)(13)-12-10-12(13)(12)-10----10---------------------
G---------------------------------------------12----12(14)~~~---\\\-----
D-----------------------------------------------------------------------
A-----------------------------------------------------------------------
E-----------------------------------------------------------------------


e-------------T--------T--------T--------T------------------------------
B-----------------------------------------------------------------------
G-7(9)--------10p(9)---12p(9)---14p(9)---15p(9)-------------------------
D-----------------------------------------------------------------------
A-----------------------------------------------------------------------
E-----------------------------------------------------------------------


e-----------------------------------------------------------------------
B-----------------------------------------------------------------------
G-14p(9)-15p(9)-17p(9)-15p(9)(7)~~~-\\\---------------------------------
D-----------------------------------------------------------------------
A-----------------------------------------------------------------------
E-----------------------------------------------------------------------


e-----------------------------------------------------------------------
B-5--------7---------8----------10---------12---------13-------------\\\
G-7(9)---x-9(11)---X-10(12)---x-12(14)---x-14(16)---x-15(17)---------\\\
D-----------------------------------------------------------------------
A-----------------------------------------------------------------------
E-----------------------------------------------------------------------


The End

e-----------------------------------------------------------------------
B-----------------------------------------------------------------------
G-5---7.---7/9~---------------6/7---5---7---5---------------------------
D-----------------------------------------------------------------------
A-----------------------------------------------------------------------
E-----------------------------------------------------------------------


e---------------------------5-----7-----8------10-------12--------------
B-----------------------------------------------------------------------
G-4h5p4---h5------------4/5---5/7---7/9---9/10----10/12-----------------
D-----------------------------------------------------------------------
A-----------------------------------------------------------------------
E-----------------------------------------------------------------------


e-5-------------------------------7-------------------------------------
B-5-------------------------------5-------------------------------------
G-5-------------------------------5-------------------------------------
D-7-------------------------------5-------- TREMOLO --------------------
A-7-------------------------------7-------------------------------------
E-5-------------------------------5-------------------------------------