20130918

ELVIS PRESLEY THE WONDER OF YOU SOLO TAB

There's a nice solo by 1:37 in the following version of Elvis Presley The Wonder Of You.
Use your index and middle fingers to play the 3rds and your ringfinger to play the hammer-on pull-offs. See the TAB of this guitar solo below.
 


ELVIS PRESLEY THE WONDER OF YOU SOLO TAB

PDF >>

e-7-7~---7-7~---5h7p5-3-5-5/7~------------------------------------------
B-8-8~---8-8~---7-----5-7-7/8~------------------------------------------
G-----------------------------------------------------------------------
D-----------------------------------------------------------------------
A-----------------------------------------------------------------------
E-----------------------------------------------------------------------


e--8--8~----8--8~---7h10p7-5-7-7/8~-------------------------------------
B-10-10~---10-10~---8------7-8-8/10~------------------------------------
G-----------------------------------------------------------------------
D-----------------------------------------------------------------------
A-----------------------------------------------------------------------
E-----------------------------------------------------------------------



e-10-10~---10-10~----8h10p8-7--8--8/10~---------------------------------
B-12-12~---12-12~---10------8-10-10/12~---------------------------------
G-----------------------------------------------------------------------
D-----------------------------------------------------------------------
A-----------------------------------------------------------------------
E-----------------------------------------------------------------------


e-12-12~---12-12~---10h12p10--8-10-10/12~--------12/14~-----------------
B-13-13~---13-13~---12-------10-12-12/13~--------13/15~-----------------
G-----------------------------------------------------------------------
D-----------------------------------------------------------------------
A-----------------------------------------------------------------------
E-----------------------------------------------------------------------