20130921

ERIC CLAPTON MY FATHERS EYES TAB (INTRO SOLO LIVE IN 2007)

Eric Clapton plays a nice introduction to My Fathers Eyes in this live version.
See the TAB of this cool solo by 0:22 and the solo by 4:21 below and learn to play it like Eric Clapton does.


ERIC CLAPTON MY FATHERS EYES TAB

PDF >>

Intro by 0:22 - 1:30

e-----------------------------------------------------------------------
B-------------------4-5-4h5p4-------------------------------------------
G-4.---5.---------------------6-4~--------------------------------------
D-----------------------------------------------------------------------
A-----------------------------------------------------------------------
E-----------------------------------------------------------------------


e-----------------------------------------------------------------------
B---------------------------------------------------9h10-9~-------------
G-------4---------------------------------------------------------------
D-4/6-----6\4~-----------2~---------------------------------------------
A-----------------------------------------------------------------------
E-----------------------------------------------------------------------


e-----------------------------------------------------------------------
B-----------------------------------------------------------------------
G-9h11p9----9-11-11/13~---------9h11----9~------------------------------
D--------11--------------------------11---------------------------------
A-----------------------------------------------------------------------
E-----------------------------------------------------------------------



e-----------------------------------------------------------------------
B----------------------------------------------------12----12-14--------
G--------------------------------------11----9-11/13----13--------------
D-11-9-----------------9----11----9-11----11----------------------------
A------11\9-7---7-9/11---11----11---------------------------------------
E-------------9---------------------------------------------------------


e-12h14(16).-12~-----------------------14(16)-14~-----12.---------------
B------------------14.--------------12----------------------------------
G-----------------------------------------------------------------------
D-----------------------------------------------------------------------
A-----------------------------------------------------------------------
E-----------------------------------------------------------------------


e-14(16).-(16)(14)p12----12-14-12h14p12----12-12~-----------------------
B---------------------14----------------14------------14-12-------------
G-----------------------------------------------------------13\11-9-----
D-------------------------------------------------------------------11--
A-----------------------------------------------------------------------
E-----------------------------------------------------------------------


e-----------------------------------------------------------------------
B------9-10-9h10p9-9----------------------------------------------------
G-9h11---------------11-9-----------------------------------------------
D-------------------------11-9------------------------------------------
A------------------------------11\9-7---7h9~-----7~------6---7~---------
E-------------------------------------9---------------------------------


e-----------------------------------0-----------------------------------
B------------5.---4-----------------0-----5-----------------------------
G----4~-----------4-----6-4-----2/4-----4---4---4-----------------------
D-/6--------------4-----------------------------------------------------
A-----------------0-----------------------------------------------------
E-------------------------------------4-------4-------------------------


e-----------------------------------------------------------------------
B---------------------2-----2-------------------------------------------
G-------4/6---------4---4-----4-----------------------------------------
D-----2---------2---------2-----2---------------------------------------
A-2/4-------0-----------------------------------------------------------
E-----------------------------------------------------------------------


e--------------------------------------------------------0--------------
B--------------------------------5-\-------2-----------0----------------
G-------4/6~-----4-4~----------4---------2---2-----1--------------------
D-----2-----------------------------------------------------------------
A-2/4-------------------------------------------------------------------
E--------------------------4---------2---------0------------------------


e-----------------------------------------------------------------------
B-----------------------2-----------------------------------------------
G-------------------2-------2-------------------------------------------
D---------2.-2h4~---------------4---------------------------------------
A-2/4-------------------------------------------------------------------
E-----------------------------------------------------------------------


e-----------------------------------------------------------------------
B-5/7~-----5-7-5-----------------2--------------------------------------
G----------------6\4-2---4---2-4---2'-----------------------------------
D----------------------4---4----------4-2---2h4-2-----------------------
A-----------------------------------------4-------4-2h4---2h4-----------
E-----------------------------------------------------------------------


e-----------------------------------------------------------------------
B-------------4---------------------------4-----------------------------
G---------4-------4-------------------4---------------------------------
D-----4---------------4-----------4-------------------------------------
A-2-----------------------2---0-----------------------------------------
E-----------------------------------------------------------------------


solo by 1:49

e-----------------------------------------------------------------------
B---------------5--------------------/5-4-----5.-5~---------------------
G-----6~----------6~----------------------------------------------------
D-4/6-------------------------------------------------------------------
A-----------------------------------------------------------------------
E-----------------------------------------------------------------------


e-----------------------------------------------------------------------
B-----------------------------------------------------------------------
G-11(13)---(11)---p9---\8-------------------------------9---------------
D---------------------------11---9--------9---11~---------11~-----------
A------------------------------------11---------------------------------
E-----------------------------------------------------------------------


e-----------------------------------------------------------------------
B-12/14-----12\10-----9-------------------------------------------------
G-------------------------11---9.---11(13)---(11)-9-9~------------------
D-----------------------------------------------------------------------
A-----------------------------------------------------------------------
E-----------------------------------------------------------------------


e----------------------------2-----0-----0-----2------------------------
B-----3~---------------------3-----2-----0-----2------------------------
G-----2~---------------------2-----2-----1-----3------------------------
D-0--------------------------0-----2-----2-----4------------------------
A----------------------------------0-----2-----4------------------------
E----------------------------------------0-----2------------------------


Solo by 4:21

e-----------------------------------------------------------------------
B----------12~-----14/17~-----------------------------------------------
G-/13~------------------------------------------------------------------
D-----------------------------------------------------------------------
A-----------------------------------------------------------------------
E-----------------------------------------------------------------------


e-----------------------------------------------------------------------
B-19(21)-----19~-----17~-----16-17~------\\\----------------------------
G-----------------------------------------------------------------------
D-----------------------------------------------------------------------
A-----------------------------------------------------------------------
E-----------------------------------------------------------------------


e-7-9-7-----------------------------------------------------------------
B-------9-7-5---5h7~-----5h7p5-4~---------------------------------------
G-------------6-----------------------6-4---6---4-----------------------
D-----------------------------------------6---6---6\4-2-----------------
A-------------------------------------------------------4.--------------
E-----------------------------------------------------------------------


e-----------------------------------------------------------------------
B-----------------------------------------------------------------------
G-----4---4h6p4---4~---h6.---------------------------11----9-11(13)-----
D-4/6---6-------6--------------------------9----9-11----11--------------
A--------------------------------------/11---11-------------------------
E-----------------------------------------------------------------------


e-----------------------------------------------------------------------
B-10-12-----------------------------------------------------------------
G-------11(13).---9~----------9h11p9------------------------------------
D------------------------11----------11\--------------------------------
A-----------------------------------------------------------------------
E-----------------------------------------------------------------------