20130927

JAMES BLUNT BONFIRE HEART TAB AND LESSON


Short guitar lesson how to play the nice chords of James Blunt - Bonfire Heart.
See the TAB below.



JAMES BLUNT BONFIRE HEART TAB

PDF >>

Intro

  C
e-----------------------------------------------------------------------
B-----1---------------1-------------1---------------1-------------------
G-----------0---------------0-------------0-------------0---------------
D---------2-----2---------2-------------2-----2-------------2-----------
A-3---------------3-------------3---------------3-----------------------
E-----------------------------------------------------------------------


Verse

  C
e-----------------------------------------------------------------------
B-----1---------------1-------------1---------------1-------------------
G-----------0---------------0-------------0-------------0---------------
D---------2-----2---------2-------------2-----2-------------2-----------
A-3---------------3-------------3---------------3-----------------------
E-----------------------------------------------------------------------

  Em
e-----------------------------------------------------------------------
B-----0---------------0---------------0---------------0-----------------
G-----------0---------------0---------------0-------------0-------------
D---------2-----2---------2-----2---------2-----2-------------0---------
A-----------------------------------------------------------------------
E-0---------------0---------------0---------------0---------------------



  C
e-----------------------------------------------------------------------
B-----1---------------1-------------1---------------1-/-3---1-----------
G-----------0---------------0-------------0-----------------------------
D---------2-----2---------2-------------2-----2-------------------------
A-3---------------3-------------3---------------3-----------------------
E-----------------------------------------------------------------------

  Em
e-----------------------------------------------------------------------
B-----0---------------0---------------0---------------0-----------------
G-----------0---------------0---------------0-------------0-------------
D---------2-----2---------2-----2---------2-----2-------------0---------
A-----------------------------------------------------------------------
E-0---------------0---------------0---------------0---------------------

  F
e-----------------------------------------------------------------------
B-----1---------------1---------------1---------------------------------
G-----------2---------------2---------------2---------2-------0---------
D---------3-----3---------3-----3---------3-----3-----------------------
A-----------------------------------------------------------------------
E-1---------------1---------------1---------------1-------3-------------

  Am
e-----0---------------0---------------0---------------0-----------------
B-----------1---------------1---------------1---------------------------
G---------------2---------------2---------------2-----------------------
D---------2---------------2---------------2-----------------------------
A-0---------------0---------------0---------------0-------2-------------
E-----------------------------------------------------------------------

  C
e-----3---------------3---------------3---------------3-----------------
B-----------1---------------1---------------1-------------1-------------
G---------------0---------------0---------------0-------------0---------
D---------2---------------2---------------2-----------------------------
A-3---------------3---------------3---------------3---------------------
E-----------------------------------------------------------------------

  G
e-----------------------------------------------------------------------
B-----3---------------3-----------3-------------------------------------
G-----------4---------------4-----4-------------------------------------
D---------5-----5---------5-------5-------------------------------------
A-----------------------------------------------------------------------
E-3---------------3-------------3---------------------------------------


Chorus

  C
e-----------------------------------------------------------------------
B-----1---------------1-----------------1---------------1---------------
G-----------0---------------0-----------------0-------------------------
D---------2-----2---------2-----2-----------2-----2---------------------
A-3---------------3-----------------3---------------3-------2-----------
E-----------------------------------------------------------------------

  Am
e-----------------------------------------------------------------------
B-----1---------------1---------------1---------------------------------
G-----------2---------------2---------------2---------2-------0---------
D---------2-----2---------2-----2---------2-----2-----------------------
A-0---------------0---------------0---------------0---------------------
E---------------------------------------------------------3-------------

  F
e-----------------------------------------------------------------------
B-----1---------------1---------------1---------------1-----------------
G-----------2---------------2---------------2---------------2-----------
D---------3-----3---------3-----3---------3-----3---------3-------------
A-----------------------------------------------------------------------
E-1---------------1---------------1---------------1---------------------

  Am                              G
e-----0---------------0-------------------------------------------------
B-----------1---------------1---------3---------------3-----------------
G---------------2---------------0-----------4---------------4-----------
D---------2---------------2---------------5-----5---------5-----5-------
A-0---------------0-----------------------------------------------------
E---------------------------------3---------------3---------------------


Verse - guitar 2

  C
e-0---0---0-0-0-0-0---0---0-0-0-0-0---0---0-0-0-0-0---0---0-0-0-0-------
B-1---1---1-1-1-1-1---1---1-1-1-1-1---1---1-1-1-1-1---1---1-1-1-1-------
G-0---0---0-0-0-0-0---0---0-0-0-0-0---0---0-0-0-0-0---0---0-0-0-0-------
D-2---2---2-2-2-2-2---2---2-2-2-2-2---2---2-2-2-2-2---2---2-2-2-2-------
A-3---3---3-3-3-3-3---3---3-3-3-3-3---3---3-3-3-3-3---3---3-3-3-3-------
E-----------------------------------------------------------------------

  Em
e-0---0---0-0-0-0-0---0---0-0-0-0-0---0---0-0-0-0-0---0---0-0-0-0-------
B-0---0---0-0-0-0-0---0---0-0-0-0-0---0---0-0-0-0-0---0---0-0-0-0-------
G-0---0---0-0-0-0-0---0---0-0-0-0-0---0---0-0-0-0-0---0---0-0-0-0-------
D-2---2---2-2-2-2-2---2---2-2-2-2-2---2---2-2-2-2-2---2---2-2-2-2-------
A-2---2---2-2-2-2-2---2---2-2-2-2-2---2---2-2-2-2-2---2---2-2-2-2-------
E-0---0---0-0-0-0-0---0---0-0-0-0-0---0---0-0-0-0-0---0---0-0-0-0-------

  C
e-0---0---0-0-0-0-0---0---0-0-0-0-0---0---0-0-0-0-0---0---0-0-0-0-------
B-1---1---1-1-1-1-1---1---1-1-1-1-1---1---1-1-1-1-1---1---1-1-1-1-------
G-0---0---0-0-0-0-0---0---0-0-0-0-0---0---0-0-0-0-0---0---0-0-0-0-------
D-2---2---2-2-2-2-2---2---2-2-2-2-2---2---2-2-2-2-2---2---2-2-2-2-------
A-3---3---3-3-3-3-3---3---3-3-3-3-3---3---3-3-3-3-3---3---3-3-3-3-------
E-----------------------------------------------------------------------

  Em
e-0---0---0-0-0-0-0---0---0-0-0-0-0---0---0-0-0-0-0---0---0-0-0-0-------
B-0---0---0-0-0-0-0---0---0-0-0-0-0---0---0-0-0-0-0---0---0-0-0-0-------
G-0---0---0-0-0-0-0---0---0-0-0-0-0---0---0-0-0-0-0---0---0-0-0-0-------
D-2---2---2-2-2-2-2---2---2-2-2-2-2---2---2-2-2-2-2---2---2-2-2-2-------
A-2---2---2-2-2-2-2---2---2-2-2-2-2---2---2-2-2-2-2---2---2-2-2-2-------
E-0---0---0-0-0-0-0---0---0-0-0-0-0---0---0-0-0-0-0---0---0-0-0-0-------

  F
e-1---1---1-1-1-1-1---1---1-1-1-1-1---1---1-1-1-1-1---1---1-1-1-1-------
B-1---1---1-1-1-1-1---1---1-1-1-1-1---1---1-1-1-1-1---1---1-1-1-1-------
G-2---2---2-2-2-2-2---2---2-2-2-2-2---2---2-2-2-2-2---2---2-2-2-2-------
D-3---3---3-3-3-3-3---3---3-3-3-3-3---3---3-3-3-3-3---3---3-3-3-3-------
A-3---3---3-3-3-3-3---3---3-3-3-3-3---3---3-3-3-3-3---3---3-3-3-3-------
E-1---1---1-1-1-1-1---1---1-1-1-1-1---1---1-1-1-1-1---1---1-1-1-1-------

  Am
e-0---0---0-0-0-0-0---0---0-0-0-0-0---0---0-0-0-0-0---0---0-0-0-0-------
B-1---1---1-1-1-1-1---1---1-1-1-1-1---1---1-1-1-1-1---1---1-1-1-1-------
G-2---2---2-2-2-2-2---2---2-2-2-2-2---2---2-2-2-2-2---2---2-2-2-2-------
D-2---2---2-2-2-2-2---2---2-2-2-2-2---2---2-2-2-2-2---2---2-2-2-2-------
A-0---0---0-0-0-0-0---0---0-0-0-0-0---0---0-0-0-0-0---0---0-0-0-0-------
E-----------------------------------------------------------------------

  C
e-0---0---0-0-0-0-0---0---0-0-0-0-0---0---0-0-0-0-0---0---0-0-0-0-------
B-1---1---1-1-1-1-1---1---1-1-1-1-1---1---1-1-1-1-1---1---1-1-1-1-------
G-0---0---0-0-0-0-0---0---0-0-0-0-0---0---0-0-0-0-0---0---0-0-0-0-------
D-2---2---2-2-2-2-2---2---2-2-2-2-2---2---2-2-2-2-2---2---2-2-2-2-------
A-3---3---3-3-3-3-3---3---3-3-3-3-3---3---3-3-3-3-3---3---3-3-3-3-------
E-----------------------------------------------------------------------

  G
e-3---3---3-3-3-3-3---3---3-3-3-3-3-------------------------------------
B-3---3---3-3-3-3-3---3---3-3-3-3-3-------------------------------------
G-0---0---0-0-0-0-0---0---0-0-0-0-0-------------------------------------
D-0---0---0-0-0-0-0---0---0-0-0-0-0-------------------------------------
A-2---2---2-2-2-2-2---2---2-2-2-2-2-------------------------------------
E-3---3---3-3-3-3-3---3---3-3-3-3-3-------------------------------------


Chorus - guitar 2

  C
e-0---0---0-0-0-0-0---0---0-0-0-0-0---0---0-0-0-0-0---0---0-0-0-0-------
B-1---1---1-1-1-1-1---1---1-1-1-1-1---1---1-1-1-1-1---1---1-1-1-1-------
G-0---0---0-0-0-0-0---0---0-0-0-0-0---0---0-0-0-0-0---0---0-0-0-0-------
D-2---2---2-2-2-2-2---2---2-2-2-2-2---2---2-2-2-2-2---2---2-2-2-2-------
A-3---3---3-3-3-3-3---3---3-3-3-3-3---3---3-3-3-3-3---3---3-3-3-3-------
E-----------------------------------------------------------------------

  Am
e-0---0---0-0-0-0-0---0---0-0-0-0-0---0---0-0-0-0-0---0---0-0-0-0-------
B-1---1---1-1-1-1-1---1---1-1-1-1-1---1---1-1-1-1-1---1---1-1-1-1-------
G-2---2---2-2-2-2-2---2---2-2-2-2-2---2---2-2-2-2-2---2---2-2-2-2-------
D-2---2---2-2-2-2-2---2---2-2-2-2-2---2---2-2-2-2-2---2---2-2-2-2-------
A-0---0---0-0-0-0-0---0---0-0-0-0-0---0---0-0-0-0-0---0---0-0-0-0-------
E-----------------------------------------------------------------------

  F
e-1---1---1-1-1-1-1---1---1-1-1-1-1---1---1-1-1-1-1---1---1-1-1-1-------
B-1---1---1-1-1-1-1---1---1-1-1-1-1---1---1-1-1-1-1---1---1-1-1-1-------
G-2---2---2-2-2-2-2---2---2-2-2-2-2---2---2-2-2-2-2---2---2-2-2-2-------
D-3---3---3-3-3-3-3---3---3-3-3-3-3---3---3-3-3-3-3---3---3-3-3-3-------
A-3---3---3-3-3-3-3---3---3-3-3-3-3---3---3-3-3-3-3---3---3-3-3-3-------
E-1---1---1-1-1-1-1---1---1-1-1-1-1---1---1-1-1-1-1---1---1-1-1-1-------

  Am                              G
e-0---0---0-0-0-0-0---0---0-0-0-0-3---3---3-3-3-3-3---3---3-3-3-3-------
B-1---1---1-1-1-1-1---1---1-1-1-1-3---3---3-3-3-3-3---3---3-3-3-3-------
G-2---2---2-2-2-2-2---2---2-2-2-2-0---0---0-0-0-0-0---0---0-0-0-0-------
D-2---2---2-2-2-2-2---2---2-2-2-2-0---0---0-0-0-0-0---0---0-0-0-0-------
A-0---0---0-0-0-0-0---0---0-0-0-0-2---2---2-2-2-2-2---2---2-2-2-2-------
E---------------------------------3---3---3-3-3-3-3---3---3-3-3-3-------


Bridge chords by 2:16

  F
e-1-1-1-1---1-1-1-1-1-1-1---1-1-1-1-1-1-1---1-1-1-1-1-1-1---1-1-1-------
B-1-1-1-1---1-1-1-1-1-1-1---1-1-1-1-1-1-1---1-1-1-1-1-1-1---1-1-1-------
G-2-2-2-2---2-2-2-2-2-2-2---2-2-2-2-2-2-2---2-2-2-2-2-2-2---2-2-2-------
D-3-3-3-3---3-3-3-3-3-3-3---3-3-3-3-3-3-3---3-3-3-3-3-3-3---3-3-3-------
A-3-3-3-3---3-3-3-3-3-3-3---3-3-3-3-3-3-3---3-3-3-3-3-3-3---3-3-3-------
E-1-1-1-1---1-1-1-1-1-1-1---1-1-1-1-1-1-1---1-1-1-1-1-1-1---1-1-1-------

  Am
e-0-0-0-0---0-0-0-0-0-0-0---0-0-0-0-0-0-0---0-0-0-0-0-0-0---0-0-0-------
B-1-1-1-1---1-1-1-1-1-1-1---1-1-1-1-1-1-1---1-1-1-1-1-1-1---1-1-1-------
G-2-2-2-2---2-2-2-2-2-2-2---2-2-2-2-2-2-2---2-2-2-2-2-2-2---2-2-2-------
D-2-2-2-2---2-2-2-2-2-2-2---2-2-2-2-2-2-2---2-2-2-2-2-2-2---2-2-2-------
A-0-0-0-0---0-0-0-0-0-0-0---0-0-0-0-0-0-0---0-0-0-0-0-0-0---0-0-0-------
E-----------------------------------------------------------------------

  C
e-0-0-0-0---0-0-0-0-0-0-0---0-0-0-0-0-0-0---0-0-0-0-0-0-0---0-0-0-------
B-1-1-1-1---1-1-1-1-1-1-1---1-1-1-1-1-1-1---1-1-1-1-1-1-1---1-1-1-------
G-0-0-0-0---0-0-0-0-0-0-0---0-0-0-0-0-0-0---0-0-0-0-0-0-0---0-0-0-------
D-2-2-2-2---2-2-2-2-2-2-2---2-2-2-2-2-2-2---2-2-2-2-2-2-2---2-2-2-------
A-3-3-3-3---3-3-3-3-3-3-3---3-3-3-3-3-3-3---3-3-3-3-3-3-3---3-3-3-------
E-----------------------------------------------------------------------

  G
e-3-3-3-3---3-3-3-3-3-3-3---3-3-3-3-3-3-3---3-3-3-3-3-3-3---3-3-3-------
B-0-0-0-0---0-0-0-0-0-0-0---0-0-0-0-0-0-0---0-0-0-0-0-0-0---0-0-0-------
G-0-0-0-0---0-0-0-0-0-0-0---0-0-0-0-0-0-0---0-0-0-0-0-0-0---0-0-0-------
D-0-0-0-0---0-0-0-0-0-0-0---0-0-0-0-0-0-0---0-0-0-0-0-0-0---0-0-0-------
A-2-2-2-2---2-2-2-2-2-2-2---2-2-2-2-2-2-2---2-2-2-2-2-2-2---2-2-2-------
E-3-3-3-3---3-3-3-3-3-3-3---3-3-3-3-3-3-3---3-3-3-3-3-3-3---3-3-3-------