20130902

JUANES LA PAGA TAB


There is a tricky solo in Juanes - La Paga with 2 guitars at the same time.
See how to play both guitar lines in this video.  
TAB helps to learn the complete song below.


JUANES LA PAGA TAB

PDF >>

Chords

e-x---5---x---5---x---5---x---5---x---5---x---5---x---------------------
B-x---5---x---5---x---5---x---5---x---6---x---6---x---5---x---5---------
G-x---5---x---5---x---5---x---5---x---7---x---7---x---7---x---7---------
D-x---7---x---7---x---7---x---7---x---7---x---7---x---6---x---6---------
A-x---7---x---7---x---7---x---7---x---5---x---5---x---7---x---7---------
E-x---5---x---5---x---5---x---5---x-------------------------------------


Intro solo

e-----------------------------------------------------------------------
B-----------------------------------------------------------------------
G-8/9----------------------------7---9---10---12---10---7---9-----------
D-----------------------------------------------------------------------
A-6/7----------------------------5---7---8----10---8----5---7-----------
E-----------------------------------------------------------------------


e-----------------------------------------------------------------------
B-10---10---------------------------------------------------------------
G--------------------7---------7/9--------------------------------------
D-7----7----------------------------------------------------------------
A--------------------5---------5/7--------------------------------------
E-----------------------------------------------------------------------


Main solo

G1

e-----------------------------------------------------------------------
B---------5~--5-----------5---------------------------------------------
G-5~--5-7-------7-5~--5-7---7-5-4---------------------------------------
D---------------------------------7~-------5----------------------------
A--------------------------------------------8-7-5~---------------------
E-----------------------------------------------------------------------


e---------------------------------5~------------------------------------
B---------5~--5-----------5-5-6-8---------------8-6-5---8-6-5-----------
G-5~--5-7-------7-5~--5-7-----------------------------7-------7-5~---\\\
D-----------------------------------------------------------------------
A-----------------------------------------------------------------------
E-----------------------------------------------------------------------


G2

e-----------------------------------------------------------------------
B-----------------------------------------------------------------------
G-------4-5~--5-4-------4-5-4-------------------------------------------
D-7~--7-----------7~--7-------7-5---------------------------------------
A---------------------------------8~-------7-5--------------------------
E----------------------------------------------8-7~---------------------


e-----------------------------------------------------------------------
B-------------------------------5-6~------------5-------5---------------
G-------4-5~--5-4-------4-5-6-7-------------------7-5-4---7-5-4---------
D-7~--7-----------7~--7-----------------------------------------7~---\\\
A-----------------------------------------------------------------------
E-----------------------------------------------------------------------


Solo by 2:05     (transposed at the end !!!)

G1

e-----------------------------------------------------------------------
B---------5~--5-----------5---------------------------------------------
G-5~--5-7-------7-5~--5-7---7-5-4---------------------------------------
D---------------------------------7~-------5----------------------------
A--------------------------------------------8-7-5~---------------------
E-----------------------------------------------------------------------


e---------------------------------5~------------------------------------
B---------5~--5-----------5-5-6-8---------------8-6-5---8-6-5-----------
G-5~--5-7-------7-5~--5-7-----------------------------7-------7---------
D-----------------------------------------------------------------------
A-----------------------------------------------------------------------
E-----------------------------------------------------------------------


G2

e-----------------------------------------------------------------------
B-----------------------------------------------------------------------
G-------4-5~--5-4-------4-5-4-------------------------------------------
D-7~--7-----------7~--7-------7-5---------------------------------------
A---------------------------------8~-------7-5--------------------------
E----------------------------------------------8-7~---------------------


e-----------------------------------------------------------------------
B-------------------------------5-6~------------5-------5---------------
G-------4-5~--5-4-------4-5-6-7-------------------7-5-4---7-5-4---------
D-7~--7-----------7~--7-------------------------------------------------
A-----------------------------------------------------------------------
E-----------------------------------------------------------------------


G1

e-----------------------------------------------------------------------
B---------5~--5-----------5---------------------------------------------
G-5~--5-7-------7-5~--5-7---7-5-4---------------------------------------
D---------------------------------7~-------5----------------------------
A--------------------------------------------8-7-5~---------------------
E-----------------------------------------------------------------------


e---------------------------------5~------------5-------7---------------
B---------5~--5-----------5-5-6-8-----------------8-6-5---10-8-7--------
G-5~--5-7-------7-5~--5-7-----------------------------------------------
D-----------------------------------------------------------------------
A-----------------------------------------------------------------------
E-----------------------------------------------------------------------


G2

e-----------------------------------------------------------------------
B-----------------------------------------------------------------------
G-------4-5~--5-4-------4-5-4-------------------------------------------
D-7~--7-----------7~--7-------7-5---------------------------------------
A---------------------------------8~-------7-5--------------------------
E----------------------------------------------8-7~---------------------


e-----------------------------------------------------------------------
B-------------------------------5-6~------------5-------7---------------
G-------4-5~--5-4-------4-5-6-7-------------------7-5-4---9-7-6---------
D-7~--7-----------7~--7-----------------------------------------9~---\\\
A-----------------------------------------------------------------------
E-----------------------------------------------------------------------


Chords transposed

e-x---7---x---7---x---7---x---7---x---7---x---7---x---------------------
B-x---7---x---7---x---7---x---7---x---8---x---8---x---7---x---7---------
G-x---7---x---7---x---7---x---7---x---9---x---9---x---9---x---9---------
D-x---9---x---9---x---9---x---9---x---9---x---9---x---8---x---8---------
A-x---9---x---9---x---9---x---9---x---7---x---7---x---9---x---9---------
E-x---7---x---7---x---7---x---7---x-------------------------------------


Solo at the end (transposed)

G1

e-----------------------------------------------------------------------
B---------7~--7-----------7---------------------------------------------
G-7~--7-9-------9-7~--7-9---9-7-6---------------------------------------
D---------------------------------9~-------7----------------------------
A--------------------------------------------10-9-7~--------------------
E-----------------------------------------------------------------------


e----------------------------------7~-----------------------------------
B---------7~--7-----------7-7-8-10---------------10-8-7---10-8-7--------
G-7~--7-9-------9-7~--7-9-------------------------------9-------9-------
D-----------------------------------------------------------------------
A-----------------------------------------------------------------------
E-----------------------------------------------------------------------


G2

e-----------------------------------------------------------------------
B-----------------------------------------------------------------------
G-------6-7~--7-6-------6-7-6-------------------------------------------
D-9~--9-----------9~--9-------9-7---------------------------------------
A---------------------------------10~-------9-7-------------------------
E-----------------------------------------------10-9~-------------------


e-----------------------------------------------------------------------
B-------------------------------7-8~------------7-------7---------------
G-------6-7~--7-6-------6-7-8-9-------------------9-7-6---9-7-6---------
D-9~--9-----------9~--9-------------------------------------------------
A-----------------------------------------------------------------------
E-----------------------------------------------------------------------


G1

e-----------------------------------------------------------------------
B---------7~--7-----------7---------------------------------------------
G-7~--7-9-------9-7~--7-9---9-7-6---------------------------------------
D---------------------------------9~-------7----------------------------
A--------------------------------------------10-9-7~--------------------
E-----------------------------------------------------------------------


e----------------------------------7~-----------------------------------
B---------7~--7-----------7-7-8-10---------------10-8-7---10-8-7--------
G-7~--7-9-------9-7~--7-9-------------------------------9-------9-7~-\\\
D-----------------------------------------------------------------------
A-----------------------------------------------------------------------
E-----------------------------------------------------------------------


G2

e-----------------------------------------------------------------------
B-----------------------------------------------------------------------
G-------6-7~--7-6-------6-7-6-------------------------------------------
D-9~--9-----------9~--9-------9-7---------------------------------------
A---------------------------------10~-------9-7-------------------------
E-----------------------------------------------10-9~-------------------


e-----------------------------------------------------------------------
B-------------------------------7-8~------------7-------7---------------
G-------6-7~--7-6-------6-7-8-9-------------------9-7-6---9-7-6---------
D-9~--9-----------9~--9-----------------------------------------9~---\\\
A-----------------------------------------------------------------------
E-----------------------------------------------------------------------