20130909

LA BAMBA TAB (FINGERSTYLE GUITAR COVER BY CREA)


Crea plays a fantastic fingerstyle guitar cover of La Bamba.
See the TAB of this insane arrangement below.




LA BAMBA TAB

PDF >>

Intro

e---------------2------0-----------------0-------2-----0----------------
B-------2-------3------0-----------------2-------3-----0----------------
G-------2-------2------1-----------------2-------2-----1----------------
D-------2-----2-0-4.---2---------0-0-----2-------0-4-0-2---------0-0----
A-------0---4------------------2-----4-2-0---4-0---------------2-----4-2
E-0-2-4--------------------0-4-----------------------------0-4----------


e-0-------2----0--------------------------------------------------------
B-2-------3----0--------------------------------------------------------
G-2-------2----1--------------------------------------------------------
D-2-------0-4.-2--------------------------------------------------------
A-0---4-0---------------------------------------------------------------
E-----------------------------------------------------------------------



Verse

e-10.---10-10.---10-9---------------------10---10-10---10-9----9--9-----
B-9.----9--9.----9------10-10---7-7---7/9-9----9--9----9------10-10-0---
G-9.----9--9.----9-------9--9---7-7---7/9-9----9--9--9-9-------9--9-----
D-----------------------11-11---7-7-7--------9--------------------------
A---------------------0-------0-0----------------------------0----------
E-----------------------------------------0--0----0---------------------


e---5-5-7---7-7-9-10-9-7-7h9--9--9----------4---------------------------
B---7-7-----9-9--------------10-10----7-7-x-5---------------------------
G---7-7-----9-9---------------9--9----7-7-x-4---------------------------
D-0-----------------------------11-11-7-7-x-6---------------------------
A---------------------------0---------0---------------------------------
E---------0-------0-------------------------0-0-------------------------


e-10-x-10-10---10-9-------------------10-10-10-10---10-9----------------
B-9--x-9--9----9------10-10---7-7-7/9-9--9--9--9----9------10-10-0------
G------------9---------9--9---7-7-7/9-9--9--9-----9---------9--9--------
D---------------------11-11---7-7-7/9----------------------11-11--------
A-------------------0-------0-0--------------------------0--------------
E-------------------------------------0---------------------------------


e---5-5-7---7-7-9-10-9-7-7h9--9--9----------4---4-4-4-4-4-4-------------
B---7-7-----9-9--------------10-10----7-7-x-5---5-5-5-5-5-5-------------
G---7-7-----9-9---------------9--9----7-7-x-4---4-4-4-4-4-4/5-----------
D-0-----------------------------11-11-7-7-x-6---6-6-6-6-6-6-------------
A---------------------------0---------0---------------------------------
E---------0-------0-------------------------0---0-0-0-0-----------------


Chorus

e-5---5---5-5-x-4---4-4-4---4-4-4-5-5-5---5-5-5-4---4-4-4---4-4-4-------
B-5---5-7-7-7-x-5---5-5-5---5-5-5-5-5-5-7-7-7-7-5---5-5-5---5-5-5-------
G-6---6-7-7-7-x-4---4-4-4---4-4-4-6-6-6-7-7-7-7-4---4-4-4---4-4-4-------
D---7-----0---------6-6-6---6-6-6---------0---------6-6-6---6-6-6-------
A-0-------------------------------0-------------------------------------
E-----------------0-------0-----------------------0-------0-------------


e-5-5-5---5-5-5-4---4-4-4---4-4-4-5---5-5-5-5.---4.---------------------
B-5-5-5-7-7-7-7-5---5-5-5---5-5-5-5---5-5-7-7.---5.---------------------
G-6-6-6-7-7-7-7-4---4-4-4---4-4-4-6---6-6-7-7.---4.---------------------
D---------0---------6-6-6---6-6-6---7-----0-----------------------------
A-0-------------------------------0-------------------------------------
E------------------------------------------------0.---------------------


Verse 2

e-10.---10-10.---10-9---------------------10---10-10---10-9----9--9-----
B-9.----9--9.----9------10-10---7-7---7/9-9----9--9----9------10-10-0---
G-9.----9--9.----9-------9--9---7-7---7/9-9----9--9--9-9-------9--9-----
D-----------------------11-11---7-7-7--------9--------------------------
A---------------------0-------0-0----------------------------0----------
E-----------------------------------------0--0----0---------------------


e---5-5-7---7-7-9-10-9-7-7h9--9--9----------4---------------------------
B---7-7-----9-9--------------10-10----7-7-x-5---------------------------
G---7-7-----9-9---------------9--9----7-7-x-4---------------------------
D-0-----------------------------11-11-7-7-x-6---------------------------
A---------------------------0---------0---------------------------------
E---------0-------0-------------------------0-0-------------------------


e-10-x-10-10---10-9-------------------10-10-10-10---10-12---------------
B-9--x-9--9----9------10-10---7-7-7/9-9--9--9--9----9-------10-10-0-----
G------------9---------9--9---7-7-7/9-9--9--9-----9----------9--9-------
D---------------------11-11---7-7-7/9-----------------------11-11-------
A-------------------0-------0-0---------------------------0-------------
E-------------------------------------0---------------------------------


e---5-5-7---7-7-9-10-9-7-7h9--9--9----------4---4-4-4-4-4-4-4-----------
B---7-7-----9-9--------------10-10----7-7-x-5---5-5-5-5-5-5-5-----------
G---7-7-----9-9---------------9--9----7-7-x-4---4-4-4-4-4-4-4-----------
D-0-----------------------------11-11-7-7-x-6---6-6-6-6-6-6-6-----------
A---------------------------0---------0---------------------------------
E---------0-------0-------------------------0---0-0-0-0-----------------


Chorus 2

e-5---5-5-5---5-4---4-4-4---4-4-4-5-5---x-5-5-5-4---4-4-4---4-4-4-------
B-5---5-5-7---7-5---5-5-5---5-5-5-5-5---x-7-7-7-5---5-5-5---5-5-5-------
G-6---6-6-7-7-7-4---4-4-4---4-4-4-6-6---x-7-7-7-4---4-4-4---4-4-4-------
D---------0-----6---6-6-6---6-6-6---------0-----6---6-6-6---6-6-6-------
A-0-------------------------------0-------------------------------------
E-----------------0-------0-----------------------0-------0-------------


e-5---5-5-5---5-4---4-4-4---------------------------4-4-4---4-4---------
B-5---5-5-7---7-5---5-5-5-5-5-------5-7-5-7-5-7-7---5-5-5---5-5---------
G-6---6-6-7-7-7-4---4-4-4-4-4-7-6-6-----------------4-4-4---4-4---------
D---------0-----6---6-6-6-----------------0---------6-6-6---6-6---------
A-0-------------------------------0-------------------------------------
E-----------------0-------0-----------------------0-------0-------------


e-------5---7-5-7-5h7---4-4-4-4-4.-----12p9---12p9---12p9---12p9--------
B---5-7---7-------------5-5-5-5-5.---------10-----10-----10-----10------
G-6---------------------4-4-4-4-4.-----------9------9------9------9-----
D-----------0-----------6-6-6-6-6.--------------------------------------
A---0--------------------------------0----------------------------------
E---------------------0-------0-----------------------------------------


e-12-10-x-10---10-10-x-9----9.----7---------5.-----5--------------------
B-10-10-x-10---10-10-x-10---10.-----9---9-x-2.-----2--------------------
G-11-11-x-11---11-11-x-9----9.--------9---x-2.-----2--------------------
D-0-------0-------------------------------x-2.-----2--------------------
A----------------------0------------------x-0.-----0--------------------
E---------------------------------0-----0-------------------------------