20130917

LOS LOBOS MARIACHI SUITE TAB

There is a cool song on the Desperado album: Mariachi Suite by Los Lobos.
The first part is played with a classical spanish guitar, after that they play some solos with a Fender Stratocaster and by 3:23 there is something completely different.
See the TAB of the first 2 guitar parts below.


LOS LOBOS MARIACHI SUITE

PDF >>

 Em                              H7
e----------------7------------------------------------------------------
B---8--------8-8-8---------------10---7-------7-------------------------
G-9----------9-9---------9----------------8-------8---------------------
D-----------------------------------------------------------------------
A-----------------------------------------------------------------------
E-----------------------------------------------------------------------


  H7                               Em
e-----------------------------------------------------------------------
B-----7-------7-7-10---7-----------10/12-----8--------------------------
G-8---8-------8-8--------------8---------------9------------------------
D-----------------------------------------------------------------------
A-----------------------------------------------------------------------
E-----------------------------------------------------------------------



  Em                                H7
e------------------7----------------5-----------------------------------
B--8---8-------8-8-8---8-------8.---------------7-----------------------
G-9----9-------9-9-----9-------9.-----------------8---------------------
D-----------------------------------------------------------------------
A-----------------------------------------------------------------------
E-----------------------------------------------------------------------



  H7                                Em
e-------------------5---------------5/7---------------------------------
B-6/7---7---------------7-------7-----------8---------------------------
G-7/8-----------8-8---------8-----------------9-------------------------
D-----------------------------------------------------------------------
A-----------------------------------------------------------------------
E-----------------------------------------------------------------------


               Am                D              G
e------------7-7/8----------8.-----10------------7---7---7--------------
B---7-8--10----8/10---------10.--12-------------8----8---8--------------
G-9---------------------------------------------------------------------
D-----------------------------------------------------------------------
A-----------------------------------------------------------------------
E-----------------------------------------------------------------------


              H7                              Em
e-7---5---3---2-----------2---5------------------------------------7----
B-8---7---5---4-----------4-------7-------7---10/12-----8----------8----
G-------------------------------------8-------------------9-------------
D-----------------------------------------------------------------------
A-----------------------------------------------------------------------
E-----------------------------------------------------------------------



               Am                D               G
e----------7--------8-------8------10------10\----7---------------------
B---7-8-10-----8/10---------10---12--------12\---8----------------------
G-9---------------------------------------------------------------------
D-----------------------------------------------------------------------
A-----------------------------------------------------------------------
E-----------------------------------------------------------------------


                  H7                                Em
e-7---7---5---3---2----------2---5---5p2-------2.---0-------------------
B-8---8---7---5---4----------4-------------4--------0-------------------
G---------------------------------------------------0-------------------
D-----------------------------------------------------------------------
A-----------------------------------------------------------------------
E-----------------------------------------------------------------------


 small break

    D                            G
e-4/5-------5-5-5.---5-------5-5-----7---7---7---7----------------------
B-6/7-------7-7-7.---7-------7-7-8-----8---8---8------------------------
G-----------------------------------------------------------------------
D-----------------------------------------------------------------------
A-----------------------------------------------------------------------
E-----------------------------------------------------------------------


  D                              G
e--5------5---5------------5-5-5/7-----------7---7---7-----7.-----------
B-7-------7---7------------7-7-7/8---------8---8---8---8----------------
G-----------------------------------------------------------------------
D-----------------------------------------------------------------------
A-----------------------------------------------------------------------
E-----------------------------------------------------------------------


  D                               G                H7              Em
e---5----------5h7p5-----5--------3-------3.---------2---2--------------
B-7------------------7-------7.---3--------------3/4---4----------------
G---------------------------------4-------------------------------------
D---------------------------------5-------------------------------------
A-----------------------------------------------------------------------
E-----------------------------------------------------------------------


Solo guitar

e-----------------------------------------------------------------------
B-----------------------------------------------------------------------
G--------7h9~~~~~~~------------------------9p7-9---9-9~~~~~~~~~~--------
D-----------------------------------------------------------------------
A-----------------------------------------------------------------------
E-12-\\\----------------------------------------------------------------


e-----------------------------------------------------------------------
B-----7-8p7---7----------------------------------7h8~~~---8~--p7--------
G-7h9-------9---9p7-9---9p7-9~~~~----------9-7-9-----------------9.-----
D-----------------------------------------------------------------------
A-----------------------------------------------------------------------
E-----------------------------------------------------------------------


e-----------------------------------------------------------------------
B-10p8p7-8~~~------8p7--------------------------------------------------
G----------------------9~~~-----------------------9p8-9~~~--------------
D-----------------------------------------------------------------------
A-----------------------------------------------------------------------
E-----------------------------------------------------------------------


e--------7-8-10~~~~--------10p8p7-8---p7--------------------------------
B-7-8-10---------------------------------10~----8.----------------------
G-----------------------------------------------------------------------
D-----------------------------------------------------------------------
A-----------------------------------------------------------------------
E-----------------------------------------------------------------------


e-10p8p7-8--p7----------------------------------------------------------
B--------------10---10~---------10p8p7-----7----------------------------
G--------------------------------------------9p8-9~~~-------------------
D-----------------------------------------------------------------------
A-----------------------------------------------------------------------
E-----------------------------------------------------------------------


e-----------------------------------------------------------------------
B-7-8-8---8-8p7~~~-------------7\5-----5-5-5\3---h5~~~------------------
G-----------------------------------------------------------------------
D-----------------------------------------------------------------------
A-----------------------------------------------------------------------
E-----------------------------------------------------------------------


e--------------------------------------------------------7-8----7-10~~~-
B-(-7h8h10-)------10p8p7-8~~~------8p7------------7-8-10-----10---------
G--------------------------------------9-9~---7-9-----------------------
D-----------------------------------------------------------------------
A-----------------------------------------------------------------------
E-----------------------------------------------------------------------


e-----------------------------------------------------------------------
B-10~----10~--10p8p7-8~----------8p7-------------------7---7-8p7--------
G------------------------------------9-9~------9p7-9-----9-------9-9~~~-
D-----------------------------------------------------------------------
A-----------------------------------------------------------------------
E-----------------------------------------------------------------------


e------7h8-7-10-8-10-12-10~----8h10p8p7-8~------8p7---------------------
B-8-10----------------------------------------------10---10p8-10~-------
G-----------------------------------------------------------------------
D-----------------------------------------------------------------------
A-----------------------------------------------------------------------
E-----------------------------------------------------------------------


e-----------------------------------------------------------------------
B-8p7h8~--------------8-8-8-8-8~-----8-8-8-8-8~------8p7----------------
G--------------------------------------------------------9p8-9~---------
D-----------------------------------------------------------------------
A-----------------------------------------------------------------------
E-----------------------------------------------------------------------


Nice mariachi part

e-/7---7-----7-7h8---7---7-7-8--p7---7----------------------------------
B--------------------------------------10.---10~------------------------
G-----------------------------------------------------------------------
D-----------------------------------------------------------------------
A-----------------------------------------------------------------------
E-----------------------------------------------------------------------


e-----------------------------------------------------------------------
B-10-10-10---10---10-10-/-12---p10---10-10-12---10\8-10p8p7h8~~~--------
G-----------------------------------------------------------------------
D-----------------------------------------------------------------------
A-----------------------------------------------------------------------
E-----------------------------------------------------------------------


e-----7---7---7-7-8---p7---7-7-8p7\5-7-5.-------------------------------
B-8-8---------------------------------------8-7-8/10~-------------------
G-----------------------------------------------------------------------
D-----------------------------------------------------------------------
A-----------------------------------------------------------------------
E-----------------------------------------------------------------------


e-----------------------------------------------------------------------
B-10-10-10---10---10-10-h-12---10---10-p-8-10---8h10p8p7-8-7-----7------
G------------------------------------------------------------9p7---9p7--
D-----------------------------------------------------------------------
A-----------------------------------------------------------------------
E-----------------------------------------------------------------------


e--------------------------------7-10--10--10p8p7h8---------------------
B---7-8-8~----p7---------------8----------------------------------------
G-9--------------9~~~--------9------------------------------------------
D-----------------------------------------------------------------------
A-----------------------------------------------------------------------
E-----------------------------------------------------------------------


e-10-p-7---7------------------------------------------------------------
B--------8---10-8-7-8-7-------------------------------------------------
G-----------------------9p7h9~------------------------------------------
D-----------------------------------------------------------------------
A-----------------------------------------------------------------------
E-----------------------------------------------------------------------