20130930

THE ROLLING STONES GOOD TIME WOMAN TAB


Some great lead guitar parts in Good Time Woman by the Rolling Stones.
Rhythm guitar in OPEN G tuning, lead guitar in standard tuning.
See the TAB under the video.



THE ROLLING STONES GOOD TIME WOMAN TAB

GP5 + GP6 + PDF >>

Intro

Rhythm Guitar
D-----------------------------------------------------------------------
B-----------------------------------------------------------------------
G-----------------------------------------------------------------------
D--------3/5--3h5--3h5--3h5--3h5--3h5--3h5--3h5--3h5--3p0-------------3-
G--3-3-3--------------------------------------------------5--3'---0-0---
D-----------------------------------------------------------------------


RG
D-----------------------------------------------------------------------
B-----------------------------------------------------------------------
G-----------------------------------------------------------------------
D--3/5--3h5--3h5--3h5--3h5--3h5--3h5--3h5--3h5--3p0-----------2---------
G---------------------------------------------------5--3'---0-----------
D-----------------------------------------------------------------------


RG
D-----------------------------------------------------------------------
B-----------------------------------------------------------------------
G-----------------------------------------------------------------------
D--3/5--3h5--3h5--3h5--3h5--3h5--3h5--3h5--3h5--3p0-----------2---------
G---------------------------------------------------5--3'---0-----------
D-----------------------------------------------------------------------

Lead Guitar
e--------15--15--15---------15--15--15----------------------------------
B-18(20)-------------18(20)-------------(20)-(18)p15--------------------
G----------------------------------------------------17-15'-------------
D-------------------------------------------------------------17~-------
A-----------------------------------------------------------------------
E-----------------------------------------------------------------------





RG
D-----------------------------------------------------------------------
B-----------------------------------------------------------------------
G-----------------------------------------------------------------------
D--3/5--3h5--3h5--3h5--3h5--3h5--3h5--3h5--3h5--3p0-----------0---------
G---------------------------------------------------5--3'---0-----------
D-----------------------------------------------------------------------

LG
e--------15--15--15---------15--15--15----------------------------------
B-18(20)-------------18(20)-------------(20)-(18)p15--------------------
G----------------------------------------------------17-15~~~---\\\-----
D-----------------------------------------------------------------------
A-----------------------------------------------------------------------
E-----------------------------------------------------------------------



Verse 1

RG
D-----------------------------------------------------------------------
B-----------------------------------------------------------------------
G-----------------------------------------------------------------------
D--0-0-2-0-0-0-2-0--0-0-2-0-0-0-2-0--0-0-2-0-0-0-2-0--0-0-2-0-0-0-2-0---
G--0-0-0-0-0-0-0-0--0-0-0-0-0-0-0-0--0-0-0-0-0-0-0-0--0-0-0-0-0-0-0-0---
D-----------------------------------------------------------------------
   x x x x x x x x  x x x x x x x x  x x x x x x x x  x x x x x x x x

LG
e--------------------------------------------10--------------------10.--
B-----------------------------------------------(12)(10)-8-10(12)-------
G-----------------------------------------------------------------------
D-----------------------------------------------------------------------
A-----------------------------------------------------------------------
E-----------------------------------------------------------------------


RG
D-----------------------------------------------------------------------
B-----------------------------------------------------------------------
G-----------------------------------------------------------------------
D--7-7-9-0-0-0-2-0--7-7-9-0-0-0-2-0--5-5-7-5-5-5-7-5--7-7-9-7-7-7-9-7---
G--7-7-7-0-0-0-0-0--7-7-7-0-0-0-0-0--5-5-5-5-5-5-5-5--7-7-7-7-7-7-7-7---
D-----------------------------------------------------------------------
   x x x x x x x x  x x x x x x x x  x x x x x x x x  x x x x x x x x 

LG
e------10.---7---7------------10.---7---7-------------------------------
B-----------------------------------------------------------------------
G--/11-------7---7--------/11-------7---7-------------------------------
D-----------------------------------------------------------------------
A-----------------------------------------------------------------------
E-----------------------------------------------------------------------

LG
e-----------------------------------------------------------------------
B----5-6p5-6-5--------7-8p7-8-7-----------------------------------------
G----5-7p5-7-5--------7-9p7-9-7-----------------------------------------
D-----------------------------------------------------------------------
A-----------------------------------------------------------------------
E-----------------------------------------------------------------------




DOWNLOAD THIS TAB IN GUITAR PRO



  • click 'Free Download'
  • add your e-mail address
  • you will get an e-mail with your download links (in a few seconds)
  • download the Guitar Pro 6 tab + GP5 + PDF for free
  • and that's all ...


Guitar Pro: a complete workshop for guitarists at an affordable price