20130902

TOMMY EMMANUEL PHIL EMMANUEL SHADOWS MEDLEY TAB

It seems like someone likes playing the guitar ... The Emmanuel brothers (Tommy and Phil Emmanuel) make a cool performance of some nice Shadows songs. There are some cool extra licks beside the original melodies. See the TAB below.


TOMMY AND PHIL EMMANUEL SHADOWS MEDLEY TAB

PDF >>

Apache

e------------------------3/5-3--------------------------------3/5-3-----
B---1-3-(5)(3)---------1-------5---------1-3-(5)(3)---------1-------5---
G-2------------------2-----------------2------------------2-------------
D-----------------------------------------------------------------------
A-----------------------------------------------------------------------
E-----------------------------------------------------------------------



e--------------------------------------------------------------0~-------
B-------------------------------------------------------------1~--------
G---2~-----------2--------------------2~---------------------2~---------
D-2----------2-------4~-------2---0-------------------------2~----------
A------------------------------------------0-0----------0---------------
E----------------------------------------------0-0-3'-------------------


e-----------------------------------------------------------------------
B-----------------------------------------------------------------------
G---2~-----------2--------------------2~--------------------------------
D-2----------2-------4~-------2---0-------------------------------------
A------------------------------------------0-0----------0~--------------
E----------------------------------------------0-0-3'-------------------


e-----------------------------------------------------------------------
B------3~-----------3---0~----------------3~-------3~-------------------
G-2~------------2----------------2~---0----------2----------------------
D-----------------------------------------------------------------------
A-----------------------------------------------------------------------
E-----------------------------------------------------------------------


e-------------------------------------0~----------------------0---------
B-------------------------------------1~------------------------1-------
G---2~-----------2--------------------2~--------------------------2-----
D-2----------2-------4~-------2---0---2~----------------------------2~--
A------------------------------------------0-0----------0---------------
E----------------------------------------------0-0-3'-------------------


e-----------------------------------------------------------------------
B-----------------------------------------------------------------------
G-----------------------------------------------------------------------
D-----3-3-3---3-3-----3-3-3---3-3-----3-3-3---3-3-----3-3-3---3---2-----
A-3---------------3---------------3---------------3-------------------0-
E-----------------------------------------------------------------------


e-----------------------------------------------------------------------
B-----------------------------------------------------------------------
G-----------------------------------------------------------------------
D-----------------------------------------------------------------------
A-----------------------------------------------------------------------
E-////////-\\\\\\\\\\\\\------------------------------------------------


e-----------------------------------------------------------------------
B-----------------------------------------------------------------------
G-----------------------------------------------------------------------
D-----3-3-3---3-3-----3-3-3---3-3-----3-3-3---3-3-----3-3-3---3---2-----
A-3---------------3---------------3---------------3-------------------0-
E-----------------------------------------------------------------------


e--------------------------------------------12-10h12p10-8-5---\--------
B---------1---0~-------1---3-/-5-3---1----------------------------------
G-----2--------------------------------2--------------------------------
D-3---------------------------------------------------------------------
A-----------------------------------------------------------------------
E-----------------------------------------------------------------------


e-1-----------------------------------------12--------------------------
B-1-----------1---0~-------1---3----------------15--13------------------
G-2-------2------------------------0~------------------15-12------------
D-3---3-------------------------------------------------------14-12-----
A-3------------------------------------------------------------------15\
E-----------------------------------------------------------------------


e------------------------------------------0~---------------------------
B-------------1---0~-------1---3-/-5-3---1-1~-----------0h1~------------
G---------2--------------------------------2~---------2-----------------
D-----3------------------------------------2~-------2-------------------
A------------------------------------------0~-----0---------------------
E-1---------------------------------------------------------------------


e-----------------------------------------------------------------------
B-----------------------------------------------------------------------
G-----------------------------------------------------------------------
D-----3-3-3---3-3-----3-3-3---3-3-----3-3-3---3-3-----3-3-3---3-3-2-----
A-3---------------3---------------3---------------3-------------------0-
E-----------------------------------------------------------------------


e-----0~----------------------------------------------------------------
B-----1~----------------------------------------------------------------
G-----2~----------------------------------------------------------------
D-2---------------------------------------------------------------------
A-----------------------------------------------------------------------
E-----------------------------------------------------------------------


e-----------------------------------------------------------------0~----
B-----------------------------------------------------------------1~----
G-----------------------------------------------------------------2~----
D-----3-3-3---3-3-----3-3-3---3-3-----3-3-3---3-3-----3-3-3-------2~----
A-3---------------3---------------3---------------3-----------0---------
E-----------------------------------------------------------------------




Dance on by 1:34

e------------------------------0---0.-----------------------------------
B------------------------------0---0.-----------------------------------
G------------------------------1---1.------------------2~-----2~-----2.-
D-----2---0--------------------2---2.------------------2~-----2~-----2.-
A------------------------------2---2.-------------0.---0~-----0~-----0.-
E-0-----------0.---0.---0-0.---0---0.---0-0-0-2-4-----------------------


e------------------------------0----------------------------------------
B------------------------------0----------------------------------------
G------------------------------1-----------------------2------2~-----2.-
D-----2---0--------------------2---2~------------------2------2~-----2.-
A------------------------------2------------------0----0------0~--------
E-0-----------0.---0.---0-0.---0--------0-0-0-2-4-----------------------


e-----------------------------------------------------------------------
B-------------3---2h3p2-------------------------------------------------
G---------2-------------4---2-------2---------2-------2-----------------
D-2---4-------------------------2-----------2-------2---4p2---2---------
A---------------------------------------3h4-----0-----------4---0-------
E-----------------------------------------------------------------------


e--------------------------------0--------------------------------------
B-------------3---2h3p2---------/5--------------------------------------
G---------2-------------4---2-----------------4~------------------------
D-2---4-----------------------------------------------------------------
A-----------------------------------------------------------------------
E-----------------------------------------------------------------------


e---------------------------------------------------0----------0--------
B-5-4-3~------------2h3-0~----------5-4-3~------3-----2h3-0~-----0------
G------------------------------------------------------------------2---1
D-----------------------------------------------------------------------
A-----------------------------------------------------------------------
E-----------------------------------------------------------------------


e-----------------------------------------------------------------------
B-----------------------------------------------------------------------
G-2~--------4/6---4-----------------------------------------------------
D-------------------------7---6---7~------------------------------------
A-----------------------------------------------------------------------
E-----------------------------------------------------------------------


e-----------------------------------------------------------------------
B-------------3---2h3p2-------------------------------------------------
G---------2-------------4---2-------2---------------2-------------------
D-2---4-------------------------2-----2-----2---------2-----2-----------
A---------------------------------------3h4---4-0-------3h4---4-0-------
E-----------------------------------------------------------------------


e--------------------------------0--------------------------------------
B-------------3---2h3p2---------/5--------------------------------------
G---------2-------------4---2-----------------4~------------------------
D-2---4-----------------------------------------------------------------
A-----------------------------------------------------------------------
E-----------------------------------------------------------------------


e------------------0------------------------------0-------0-----0-------
B-5-4-3~------------2h3-0~----------5-4-3~----------------------------0~
G---------------------------------------------------8-7-----6h7---7-----
D-----------------------------------------------------------------------
A-----------------------------------------------------------------------
E-----------------------------------------------------------------------


e-----------------------------------------------------------------------
B--------------------------------0-----0--------------------------------
G-2---1---2~----------4/6---4~-----2-----1---2~-------------------------
D-----------------------------------------------------------------------
A------------------------------------------------------------0---2---4--
E-----------------------------------------------------------------------


e-----10---12---14---12---10--------10---12~--------------9~------------
B------------------------------14--------14~--------------8~------------
G---------------------------------------------------------9~------------
D-0---------------------------------------------------------------------
A-----------------------------------------------------------------------
E-----------------------------------------------------------------------


e------12---14---12-----------------------------------------0~----------
B-15------------------15---14-------------------------------0~----------
G-------------------------------14---16~--------------------1~----------
D-----------------------------------------------------------2~----------
A-----------------------------------------------------------------------
E-----------------------------------------------------------------------


e-----------------------------------------------------------------------
B-----------------------------1-------1-----1-------1-------------------
G-------------------------------0-------0-----0-------0-----------------
D-------------3-----2-------------0h2-----------2-3-----3-2-------------
A---------3-----------5---3---------------3-----------------------------
E-3---5-----------------------------------------------------------------


e-----------------------------------------------------------------------
B-------------------------------------------3---------3-----------------
G----------------------------------0------------0---0-------------------
D-------------3-----2---------/5-----5---5--------5-----5-4-3~----------
A---------3-----------5---3---------------------------------------------
E-3---5-----------------------------------------------------------------


e-----------------------------------------------------------------------
B-----------------------------------------------------------------------
G-----------------------------------------------------------------------
D-2h3------------5-4-3~--------2h3--------------------------------------
A-----5~---------------------------5~------3---2---3~-------------------
E-----------------------------------------------------------------------


e---------------------------0~------------------------------------------
B---------------------------1~------------------------------------------
G---------------------------0~------------------------------------------
D-0h2---0~------------------2~------------------------------------------
A-------------------3---2---3~------------------------------------------
E-----------------------------------------------------------------------


Frightened city by 2:50

e---------0-----0-----------0-----0-----------0-----0-----------0-----0-
B-----------4'----------------4'----------------4'----------------4'----
G-2-----------------2-----------------2-----------------2---------------
D-----------------------------------------------------------------------
A-----------------------------------------------------------------------
E-----------------------------------------------------------------------


e-----------------------------------------------------------------------
B-----------------------------------------------------------------------
G-----------------------------------------------------------------------
D-----------2~-----------------2~--------------2~-----------------2~----
A---0-2-3~------2~-------3p2-----------0-2-3~------2~-------3p2---------
E-0----------------------------------0----------------------------------


e-----------------------------------------------------------0~----------
B-------------------------------------------------------1---------------
G-4-2---4~----2~----4-2---4~---2~------4.-2.------------2---------------
D-----2-----------------2--------------------3.-2-0-----2---------------
A---------------------------------------------------2---0---------------
E-----------------------------------------------------0-----------------


e-----------------------------------------------------------------------
B-----------------------------------------------------------------------
G-----------------------------------------------------------------------
D-----------2~-----------------2~--------------2~-----------------2~----
A---0-2-3~------2~-------3p2-----------0-2-3~------2~-------3p2---------
E-0----------------------------------0----------------------------------


e-----------------------------------------------------------------------
B-----------------------------------------------------------------------
G-4-2---4~----2~----4-2---4~---2~------4.-2.------------2---------------
D-----2-----------------2--------------------3.-2-0-----2---------------
A---------------------------------------------------2---0---------------
E-----------------------------------------------------0-----------------


e-----------------------------------------------------------------------
B-----------------------------------------------------------------------
G-----------------------------------------------------------------------
D-----------------------------------------------------------------------
A------0------0---------------------------------------------------------
E-3'-----3'-------------------------------------------------------------


F.B.I. by 3:25

e-----------------------------------------------------------------------
B-----------------------------------------------------------------------
G-----5-7/9~-----------7---5--------------------------------------------
D-7--------------------------7~-----------------------------------------
A-----------------------------------------------------------------------
E-----------------------------------------------------------------------


e-----------------------------------------------------------------------
B-----------------------------------------------------------------------
G-----5-7/9~-----------7---5--------------------------------------------
D-7--------------------------7~-----------------------------------------
A-----------------------------------------------------------------------
E-----------------------------------------------------------------------


e-------5---------------------------------------------------------------
B-------------8---5---------------------5-------------------------------
G-----5-------------7~---------5-7(9)-----7---5-------------------------
D-7------------------------7--------------------7~----------------------
A-----------------------------------------------------------------------
E-----------------------------------------------------------------------


e-----------------------------------------------------------------------
B--------------5--------------5--------------5--------5--------5--------
G-----5-7(9)-----7---5-7(9)-----7---5-7(9)-----7(9)-----7(9)-----7---5--
D-7-------------------------------------------------------------------7~
A-----------------------------------------------------------------------
E-----------------------------------------------------------------------


e-----------------------------------------------------------------------
B-----------------------------------------------------------------------
G-----------------------------------------------------------------------
D-------------7~--------------------------------------------------------
A-0-0-0-0---------------------------------------------------------------
E-----------------------------------------------------------------------


e-----------------------------------------------------------------------
B-----------------------------------------------------------------------
G-----------------------------------------------------------------------
D-------2~-----------0--------------------------------------------------
A-0---3------------------3-0--------------------------------------------
E-----------------------------------------------------------------------


e-----------------------------------------------------------------------
B-----------------------------------------------------------------------
G-----------------------------------------------------------------------
D-------1/2~-----------0------------------------------------------------
A-0---3--------------------3-0------------------------------------------
E-----------------------------------------------------------------------


e-----------------------------------------------------------------------
B-----------------------------------------------------------------------
G-------2-----0---------------------0-----------------------------------
D-----------------2-0---------0-1h2---2p1-------------------------------
A-0---3-------------------3---------------3-0---------------------------
E-----------------------------------------------------------------------


e-----------------------------------------------------------------------
B-----------------------------------------------------------------------
G---------------------------------------------2-------------------------
D-------0--0h1--0-----------0--1--0-----------2-------------------------
A-0---3------------3--0--3-----------3--0-----0------------------0------
E------------------------------------------3--------------0-3'----------


e-----------------------------------------------------------------------
B-----------------------------------------------------------------------
G-----------------------------------------------------------------------
D-------6---6-9---9-6---6-----------------------------------------------
A-7---7-------------------------7---7-10---10-7---7---------------------
E-------------------------8---8-----------------------------------------
      x     x     x     x     x     x      x      x


e-----------------------------------------------------------------------
B-----------------------------------------------------------------------
G-----------------------------------------------------------------------
D-------7---7-10---10-7---7-------6---6-9---9-6---6---------------------
A-8---8---------------------7---7---------------------------------------
E-----------------------------------------------------------------------
      x     x      x      x     x     x     x     x


e-----------------------------------------------------------------------
B-----------------------------------------------------------------------
G-----------------------------------------------------------------------
D---------------------------------7---7-10---10-7---7-------------------
A-------7---7-10---10-7---7-8---8---------------------------------------
E-8---8-----------------------------------------------------------------
      x     x      x      x     x     x      x      x


e-----------------------------------------------------------------------
B-----------------------------------------------------------------------
G-------------------------9-9-9-9-9-9-7/9-9-9-9-9-9---------------------
D-----------------------------------------------------------------------
A-------6---6-9---9-6---6-7-7-7-7-7-7-5/7-7-7-7-7-7---------------------
E-7---7-----------------------------------------------------------------


e-----------------------------------------------------------------------
B-----------------------------------------------------------------------
G-------------------------9-9-9-7-7-7-----------------------------------
D-----------------------------------------------------------------------
A-------6---6-9---9-6---6-7-7-7-5-5-5-----------------------------------
E-7---7-------------------------------0---------------------------------


The Boys by 4:09

e-----------------------------5-----4-----------------------------------
B-5-----------5-----------5-------------7-5-----------5------14---15-17\
G-------6---7-------6---7---------------------7-6---7-------------------
D-----------------------------------------------------------------------
A-----------------------------------------------------------------------
E-----------------------------------------------------------------------


e-----------------------------5-----4-------------------------9---------
B-5-----------5-----------5-------------7-5-----------------------12-10\
G-------6---7-------6---7---------------------7-6---4-------------------
D-----------------------------------------------------7-----------------
A-----------------------------------------------------------------------
E-----------------------------------------------------------------------


e-----------------------------5-----4-----------------------------------
B-5-----------5-----------5-------------7-5-----------5~-----14---15-17~
G-------6---7-------6---7---------------------7-6---7-------------------
D-----------------------------------------------------------------------
A-----------------------------------------------------------------------
E-----------------------------------------------------------------------


e-----------------------------5-----4-------------------------9---------
B-5-----------5-----------5-------------7-5-----------------------12-10\
G-------6---7-------6---7---------------------7-6---4-------------------
D-----------------------------------------------------7~----------------
A-----------------------------------------------------------------------
E-----------------------------------------------------------------------


Piece Pipe by 4:30

e-17-16-17~-------------------------------------------------------------
B--------------------10-9-10~-------------------------------------------
G-----------------------------------------------------------------------
D--------------------------------------7-6-7~---------------------------
A------------------------------------------------------0---0~-----------
E--------------------------------------------------------4--------------


e-9-12-9------12----------------------------9---------------------------
B--------12------10~--------------------/10---10------10----------------
G------------------------------------------------11---------------------
D--------------------------------------------------------12~------------
A-----------------------------------------------------------------------
E-----------------------------------------------------------------------


e-------------------------------------------7---------------------------
B-----12/14---12~-------10/12---10~-------------10----------------------
G-9-9---------------7-7-----------------9----------9~-------------------
D-----------------------------------------------------------------------
A-----------------------------------------------------------------------
E-----------------------------------------------------------------------


e-----------------------------------------------------------------------
B----------10---8---8h10---8------------3-------------------------------
G-9~-------------------------9---7----------4---------------------------
D----------------------------------10---------5~------------------------
A-----------------------------------------------------------------------
E-----------------------------------------------------------------------


e-----------------------------------------------------------------------
B-----------------------------------------------------------------------
G-5----------------------------4----------------------------------------
D-----7--------------------7-------6------------------------------------
A-------8~---------------------------7~---------------------------------
E-----------------------------------------------------------------------


e-9/12-9------12----------------------------9---------------------------
B--------12------10~--------------------/10---10------10----------------
G------------------------------------------------11---------------------
D--------------------------------------------------------12~------------
A-----------------------------------------------------------------------
E-----------------------------------------------------------------------


e-------------------------------------------7---------------------------
B-----12/14---12~-------10/12---10~-------------10----------------------
G-9-9---------------7-7-----------------9----------9~-------------------
D-----------------------------------------------------------------------
A-----------------------------------------------------------------------
E-----------------------------------------------------------------------


e------------9.---9.-9.--------------------------------9.---9.-9.-------
B-----------------------12.---12.-12.-10.---10.-10.--------------12.-10.
G-11.-----------------------------------------------11.-----------------
D-----------------------------------------------------------------------
A-----------------------------------------------------------------------
E-----------------------------------------------------------------------


e------------9.---9.-9.--------------------------------9.---9.-9.-------
B-----------------------12.---12.-12.-10.---10.-10.--------------12.-10.
G-10.------10---------------------------------------10.-----------------
D-----------------------------------------------------------------------
A-----------------------------------------------------------------------
E-----------------------------------------------------------------------


e-----------9.---9.-9.-----------------------------9.---9.-9.-----------
B----------------------12.---12.-12.-9.---9.-9.--------------12.-9.---10
G-9.--------------------------------------------9.----------------------
D-----------------------------------------------------------------------
A-----------------------------------------------------------------------
E-----------------------------------------------------------------------


e-----------------------------------------------------------------------
B-----------------------------------------------------------------------
G-----------------------------------------------------------------------
D-6-7-6-5~--------------------------------------------------------------
A-----------------------------------------------------------------------
E-----------------------------------------------------------------------


e-----------------------------------------------------------------------
B-----------------------------------------------------------------------
G-----------------------------------------------------------------------
D-----0---0---0---0---0-4-----------------------------------------------
A-0-----------------4-----------------0---0---0---0---0-4---------------
E---------------------------------0-----------------4-------------------

(Tommy plays)
e-----------------------------------------------------------------------
B-----------------------------------------------------------------------
G-----------------------2~----------------------------------------------
D-----4---4---4---4-2-4---------------2---2~------------2~--------------
A-0-5-----------------------------------------4---4-2-4-----------------
E---------------------------------0-------------------------------------


e-------------------------------------------------0~--------------------
B-------------------------------------------------0~--------------------
G-------------------------------------------------1~--------------------
D-----------------------0-------------------------2~--------------------
A-----2---2---2---2-1-2-----2-----0---------------2~--------------------
E-0---------------------------0-------------------0~--------------------

(Tommy plays)
e-0---------------------2-----------------------------------------------
B-3---------------3-2-3-----3-0-----------------------------------------
G-1-------------------------------2-------------------------------------
D-0---------------------------------------------------------------------
A-2---------------------------------------------------------------------
E-0---------------------------------------------------------------------


e-9/12-9------12----------------------------9---------------------------
B--------12------10~--------------------/10---10------10----------------
G------------------------------------------------11---------------------
D--------------------------------------------------------12~------------
A-----------------------------------------------------------------------
E-----------------------------------------------------------------------


e-------------------------------------------7---------------------------
B-----12/14---12~-------10/12---10~-------------10----------------------
G-9-9---------------7-7-----------------9----------9~-------------------
D-----------------------------------------------------------------------
A-----------------------------------------------------------------------
E-----------------------------------------------------------------------


e------------9.---9.-9.--------------------------------9.---9.-9.-------
B-----------------------12.---12.-12.-10.---10.-10.--------------12.-10.
G-11.-----------------------------------------------11.-----------------
D-----------------------------------------------------------------------
A-----------------------------------------------------------------------
E-----------------------------------------------------------------------


e------------9.---9.-9.--------------------------------9.---9.-9.-------
B-----------------------12.---12.-12.-10.---10.-10.--------------12.-10.
G-10.------10---------------------------------------10.-----------------
D-----------------------------------------------------------------------
A-----------------------------------------------------------------------
E-----------------------------------------------------------------------


e-----------9.---9.-9.-----------------------------9.---9.-9.-----------
B----------------------12.---12.-12.-9.---9.-9.--------------12.-9.---10
G-9.--------------------------------------------9.----------------------
D-----------------------------------------------------------------------
A-----------------------------------------------------------------------
E-----------------------------------------------------------------------


e----------------------------------------------17-16-17~----------------
B-----------------------10-9-10~----------------------------------------
G-----------------------------------------------------------------------
D-7-6-7~----------------------------------------------------------------
A-----------------------------------------------------------------------
E-----------------------------------------------------------------------


Man of mistery by 6:30

e---------1---0-----------1-0-1-0---------1---0-----------0---0---------
B-----1---------------0-------------------------------------3---3-------
G-2---------------1-------------------3---------------2-----------------
D---------------------------------5---------------4---------------------
A-----------------------------------------------------------------------
E-----------------------------------------------------------------------


e---------0-------------------------------------------------------------
B-------------3-----------3-1-3-1-1-0---0-1---0---1---0---1-0-1-0-------
G-----2---------------2---------------3---------------------------------
D-3---------------2-----------------------------------------------------
A-----------------------------------------------------------------------
E-----------------------------------------------------------------------


e---------1---0-----------1-0-1-0---------1---0-----------0---0---------
B-----1---------------0-------------------------------------3---3-------
G-2---------------1-------------------3---------------2-----------------
D---------------------------------5---------------4---------------------
A-----------------------------------------------------------------------
E-----------------------------------------------------------------------


e---------0---------------------------------------0---0---0-------------
B-------------3-----------3-1-3-1-1-0---0-1---0---1---0---1-------------
G-----2---------------2---------------3-----------2---1---2-------------
D-3---------------2-------------------------------2---2---2-------------
A-------------------------------------------------0---2---0-------------
E-----------------------------------------------------0-----------------


e---------7---5-----------7-5-7-5---------------------------------------
B-----6---------------5-------------------------------------------------
G-7---------------5-----------------------------------------------------
D---------------------------------6---5---4---3---------0-1-1-0---------
A-------------------------------------------------0---3---------3-------
E-----------------------------------------------------------------------


e-------------------------5---------7--------------------------------12-
B---6-----5---6-----5-------5----------------10-------------------------
G-------7---7---7-------5-----5-------8---------10----------------------
D-----------------7-------------7-9-----9-12-------12-----14-\\\-///----
A-5----------------------------------------------------------tremolo----
E-----------------------------------------------------0-----------------


e---------1---0-----------1-0-1-0---------1---0-----------0---0---------
B-----1---------------0-------------------------------------3---3-------
G-2---------------1-------------------3---------------2-----------------
D---------------------------------5---------------4---------------------
A-----------------------------------------------------------------------
E-----------------------------------------------------------------------


e---------0---------------------------------------0---0---0-------------
B-------------3-----------3-1-3-1-1-0---0-1---0---1---0---1-------------
G-----2---------------2---------------3-----------2---1---2-------------
D-3---------------2-------------------------------2---2---2-------------
A-------------------------------------------------0---2---0-------------
E-----------------------------------------------------0-----------------


Foot trapper by 7:20

e----------------------------------------------------3------------------
B----------------------------------------------------3------------------
G---------9.--9------------5.--4-----------5.--5-----4------------------
D-10.--10-------10-9-7.--7-------7-5-3.--3-------7.--5------------------
A-----------------------------------------------------------------------
E-----------------------------------------------------------------------


e----------------------------------------------------3.---3.------------
B----------------------------------------------------3.---3.------------
G---------9.--9------------5.--4-----------5.--5-----4.---4.------------
D-10.--10-------10-9-7.--7-------7-5-3.--3-------7.--5.---5.------------
A-----------------------------------------------------------------------
E-----------------------------------------------------------------------


e-----------------------------------------------------------------------
B------------------------------8-10-8--------------------------8-10-8---
G-------7----------------7/8h9----------0---9-7\6-7.-----0---7----------
D----10---10p9-10.------------------------9----------------9------------
A-10--------------------------------------------------------------------
E-----------------------------------------------------------------------


e-----------------------------------------------------------------------
B------------------------------8-10-8~-----6---5------------------------
G-------7----------------7/8h9------9~-------------7---5----------------
D----10---10p9-10.------------------8~---------------------9---7---9----
A-10--------------------------------------------------------------------
E-----------------------------------------------------------------------


e-----------------------------------------------------------------------
B-----------------------------------------------------------------------
G---------9~--9------------5~--4-----------5~--5------------------------
D-10~--10-------10-9-7~--7-------7-5------------------------------------
A------------------------------------8~--8-------8p7-5.-----------------
E-----------------------------------------------------------------------


e-----------------------------------------------------------------------
B--------------------------------8-10-8--------------------------8-10-8-
G-----------7---------------7/8h9---------0---9-7\6-7.-----0---7--------
D--------10---10p9-10.----------------------9----------------9----------
A-10---11---------------------------------------------------------------
E-----------------------------------------------------------------------


e-----------------------------------------------------------------------
B------------------------------8-10-8~-----6---5------------------------
G-------7----------------7/8h9------9~-------------7---5----------------
D----10---10p9-10.------------------8~---------------------9---7---9----
A-10--------------------------------------------------------------------
E-----------------------------------------------------------------------


e-----------------------------------------------------------------------
B-----------------------------------------------------------------------
G---------9.--9------------5.--4----------------------------------------
D-10.--10-------10-9-7.--7-------7-5-5---5-----5------------------------
A------------------------------------------6h7---6h7-3.--3.-------------
E-----------------------------------------------------------------------


e-----------------------------------------------------------------------
B-----------------------------------------------------------------------
G-----------------------------------------------------------------------
D----------7-------5-------3-------2.---7---5---------------------------
A-10-------8-------7-------5-------3.---8---7---------------------------
E-----------------------------------------------------------------------


e------------------0---------------0~-----------------------------------
B------------------0---------------1~-----------------------------------
G-4--------2-------0-------3-------0~-----------------------------------
D-5--------3-------2-------2-------2~-----------------------------------
A----------------------------------3~-----------------------------------
E-----------------------------------------------------------------------


e-----------------------------------------------------------------------
B-----------------------------------------------------------------------
G-----------------------------------------------------------------------
D-------0---2.----------------------------------------------------------
A-3--------------0-\\\-///----------------------------------------------
E------------------tremolo----------------------------------------------


e-----------------------------------------------------------------------
B-----------------------------------------------------------------------
G-----------------------------------------------------------------------
D-------0---2.----------------------------------------------------------
A-3--------------0-tremolo----------------------------------------------
E----------------1-\\\-///----------------------------------------------


e-----------------------------------------------------------------------
B-----------------------------------------------------------------------
G-----------------------------------------------------------------------
D-------0---2.---0-///-0-0-///-0-0-///-0--------------------------------
A-3----------------------------------------0---2---3.---5---4-5---4-5.--
E------------------t-r-e-m-o-l-o----------------------------------------


e-3.---3.---------------------------------------------------------------
B-3.---3.---------------------------------------------------------------
G-4.---4.---------------------------------------------------------------
D-5.---5.---------------------------------------------------------------
A-----------------------------------------------------------------------
E-----------------------------------------------------------------------


e-----------------------------------------------------------------------
B--------------------------------8-10-8--------------------------8-10-8-
G-----------7---------------7/8h9---------0---9-7\6-7.-----0---7--------
D--------10---10p9-10.----------------------9----------------9----------
A-10---11---------------------------------------------------------------
E-----------------------------------------------------------------------


e-----------------------------------------------------------------------
B------------------------------8-10-8~-----6---5------------------------
G-------7----------------7/8h9------9~-------------7---5----------------
D----10---10p9-10.------------------8~---------------------9---7---9----
A-10--------------------------------------------------------------------
E-----------------------------------------------------------------------


e-----------------------------------------------------------------------
B-----------------------------------------------------------------------
G---------9~--9------------5~--4-----------5~--5------------------------
D-10~--10-------10-9-7~--7-------7-5-3~--3-------7.--5---5.-------------
A-----------------------------------------------------------------------
E-----------------------------------------------------------------------


e-----------------------------------------------------------------------
B-----------------------------------------------------------------------
G---------9.--9------------5.--4---------------------5.---5.------------
D-10.--10-------10-9-7.--7-------7-5-5---5-----5-----5.---5.------------
A------------------------------------------6h7---6h7-3.---3.------------
E-----------------------------------------------------------------------


e-----------------------------------------------------------------------
B-----------------------------------------------------------------------
G-------------------5.---5.----------------5.---5.----------------------
D-------------------5.---5.----------------5.---5.----------------------
A-------------------3.---3.----------------3.---3.----------------------
E-----------------------------------------------------------------------


e-----------------------------------------------------------------------
B-----------------------------------------------------------------------
G-----------------------------------------------------------------------
D-----------------------G-O-O-D-----N-I-G-H-T---------------------------
A-----------------------------------------------------------------------
E-----------------------------------------------------------------------