20131005

AUSTRALIAN NATIONAL ANTHEM TAB - ADVANCE AUSTRALIA FAIR (COVER BY KYÖSTI RAUTIO)

Kyösti Rautio plays a cool acoustic guitar cover of Advance Australia Fair (Australian National Anthem) He also plays a cool cover of the Godfather theme song and many other national anthems. See the TAB below.


AUSTRALIAN NATIONAL ANTHEM TAB

PDF >>

e-0---1---0---------------------------0---------------------------------
B-------------3---1---0-----------1---------1-3-----0-1-------1---------
G-------------------------2---0-----------0-------------0---0-----0-----
D-----0---2---3-----------------------------------3-------2-------------
A---------------------------------------------2-------3-----------------
E-----------------2---3---2---3---2---3---------------------------------


e-----------------------------0-----------------------------------------
B-1---------------1-----1-1-------3---1---0---1---3---------------------
G-----0-------0-----------------------2---------------0-------0---------
D---------2-----------------------3-----------------------0-------------
A-3---------------3---------------------------0---2---------------------
E-------------------------------------2---3-----------------------------


e-----------------------------0-----------------------------------------
B-1-------------------------------3---1---0-----------------------------
G-----0-----------0-----0-0-------------------2---0-----------0---------
D---------2---3-------------------------------------------0-------------
A-3---2---3---3---3---------------------------5-------2-----------------
E---------------------------------3---2---0-------3---------------------



e-----------------------------------------1---0-------------------------
B-------0-1---------------------------1-----------3---------------------
G-2-----------2---0-----------0---2-------------------0-------0---------
D-3-------0-------------2-2-------3---2---0---------------0-------------
A-----------------3---------------------------3---2---------------------
E-------------------------3---------------------------------------------


e-----------------------------------0---------------------------0-------
B-------0-1-------------1-1.---3.---------1-3-----0-1-------1-----------
G-2-----------2---0---------------------0-------------0---0-------------
D-----3---------------2-------------------------3-------2---------------
A-------------------------0.----------------2-------3-------------------
E-1-------2-------3------------4.---3-----------------------------------


e---------------------------------0-------------------------------------
B-6---5---3---1---0-----------1---------1-3-----0-1-----------1---------
G---------------------2---0---2-------0--------------0-----0------------
D---------------------1---2-------------------3---------2---------------
A-5---3---2---0---------------0-----------2-------3---------------------
E-----------------3---2---0-------3-------------------------------------