20131019

CARLOS SANTANA FULL MOON TAB


There is the album version of Carlos Santana - Full moon from Spirits Dancing In The Flesh (1990) See the TAB below. Chords included ...



CARLOS SANTANA FULL MOON TAB

PDF >>

Part 1

                     Fmaj7
e-----------------------------------------------------------------------
B-----------------------------------------------------------------------
G------10---12.---------------------------------------------------------
D-10--------------12h14~------------------------------------------------
A-----------------------------------------------------------------------
E-----------------------------------------------------------------------

       Gm7
e-----------------------------------------------------------------------
B-----------------------------------------------------------------------
G-14---14(15)(14)p12~---------------------------------------------------
D-----------------------------------------------------------------------
A-----------------------------------------------------------------------
E-----------------------------------------------------------------------

        Dm                     Gm7
e-----------------------------------------------------------------------
B-10--------------------------------------------------------------------
G----12-10~--------------------14~-----------------------12/14---12.----
D-----------------------------------------------------------------------
A-----------------------------------------------------------------------
E-----------------------------------------------------------------------



  Am7                             D      D7
e-----------------------------------------------------------------------
B-----------------------------------------------------------------------
G-----------------------------------------------------------------------
D-12h14~----------------------------------------------------------------
A-----------------------------------------------------------------------
E-----------------------------------------------------------------------

          Gm7                                        Am7
e-----------------------------------------------------------------------
B----------------------------------------------10-11-13~----------------
G-14---14-14(15)(14)-12~------------------------------------------------
D-----------------------------------------------------------------------
A-----------------------------------------------------------------------
E-----------------------------------------------------------------------

  Dm           C          Bmaj7                     C#dim
e-----------------------------------------------------------------------
B-----------------------------------------------------------------------
G-10~----------9~-----------------------------------9~------------------
D-------------------------12~-------------------------------------------
A-----------------------------------------------------------------------
E-----------------------------------------------------------------------

   Dm                                Bdim
e------------------------------------------13-15---15h16p15h16p15~------
B---------------------------------------15------------------------------
G------------------------------------14---------------------------------
D-----------------------------------------------------------------------
A-----------------------------------------------------------------------
E-----------------------------------------------------------------------


e-15h16p15p13h15~----(-15h16p15p13h15~-)--------------------------------
B-----------------------------------------------------------------------
G-----------------------------------------------------------------------
D-----------------------------------------------------------------------
A-----------------------------------------------------------------------
E-----------------------------------------------------------------------


Part 2

                     Fmaj7
e-----------------------------------------------------------------------
B-----------------------------------------------------------------------
G------10---12.---------------------------------------------------------
D-10--------------12h14~-------------------12-10--------------------10~-
A------------------------------------------------12\10p8----8-10/12-----
E--------------------------------------------------------10-------------

       Gm7
e-----------------------------------------------------------------------
B-----------------------------------------------------------------------
G-12---12/14~-----12-10-10~---h12.--------------------------------------
D-----------------------------------------------------------------------
A-----------------------------------------------------------------------
E-----------------------------------------------------------------------

        Dm            Gm7                                      Am7
e-----------------------------------------------------------------------
B-10--------------------------------------------------------------------
G----12-10~------------------------------9-10---12.---14-12-------------
D-------------------------------------12--------------------12h14~------
A-------------------------------10-12-----------------------------------
E-----------------------------------------------------------------------

     D7                           Gm7                     Am7
e-----------------------------------------------------------------------
B---------------------------------------------------10-11-13~-----------
G-----------------14---14(15)(14)-12~-----------------------------------
D-----------------------------------------------------------------------
A-----------------------------------------------------------------------
E-----------------------------------------------------------------------

     Dm          C                   Bmaj7           C#dim   
e-12h13~---------12---13.-----------------------------13----------------
B---------------------------15(17)---15~--------------------------------
G-----------------------------------------------------------------------
D-----------------------------------------------------------------------
A-----------------------------------------------------------------------
E-----------------------------------------------------------------------

                                     Dm
e----10-12-13p12-13p12-13.---13~-----13(15)---(13)(15)---(13)(15)-------
B-10--------------------------------------------------------------------
G-----------------------------------------------------------------------
D-----------------------------------------------------------------------
A-----------------------------------------------------------------------
E-----------------------------------------------------------------------


e-13(15)---13(15)---13(15)---13(15)---13-10-13-10h13p10----10-----------
B-------------------------------------------------------13----13-10-----
G-----------------------------------------------------------------------
D-----------------------------------------------------------------------
A-----------------------------------------------------------------------
E-----------------------------------------------------------------------


e-10--------------------------------------------------------------------
B----13-10--------------------------------------------------------------
G----------12/13\12-10----10h12p10~---------(-10h12p10h12p10~-)---------
D----------------------12-----------------------------------------------
A-----------------------------------------------------------------------
E-----------------------------------------------------------------------


Part 3

  Bmaj7                                                    Am7
e-----------------------------------------------------------------------
B-13(15)~-----------------------------15.---15(17)-------13-10-13~------
G-----------------------------------------------------------------------
D-----------------------------------------------------------------------
A-----------------------------------------------------------------------
E-----------------------------------------------------------------------

   Gm7                                               Bmaj7
e-----13-10----------10-------------------------------------------------
B-----------13(15)------13----------------------------------------------
G--------------------------12(14)---12-10-12-10~------------------------
D-----------------------------------------------------------------------
A-----------------------------------------------------------------------
E-----------------------------------------------------------------------

              C/E                                   Am7
e----10-12-13-10~--------------------17-15-15~--------------------------
B-10--------------------------------------------------------------------
G-----------------------------------------------------------------------
D-----------------------------------------------------------------------
A-----------------------------------------------------------------------
E-----------------------------------------------------------------------

          ?
e-15(17)---15(17)---15(17)---15(17)---15(17)---15-13-13~----------------
B-----------------------------------------------------------------------
G-----------------------------------------------------------------------
D-----------------------------------------------------------------------
A-----------------------------------------------------------------------
E-----------------------------------------------------------------------

   Gm7
e----------13-----------------------------------------------------------
B-15p13-15----15-15~--13------------------------------------------------
G------------------------14.--------------------------------------------
D-----------------------------------------------------------------------
A-----------------------------------------------------------------------
E-----------------------------------------------------------------------

                                      C
e-13(15)---13-13p10-13-10-13-10-10~------10-------10--------------------
B-------------------------------------13----13-10----13-10h13p10--------
G----------------------------------------------------------------12-----
D-----------------------------------------------------------------------
A-----------------------------------------------------------------------
E-----------------------------------------------------------------------


e-----------------------------------------------------------------------
B-10--------------------------------------------------------------------
G----12-10-12p10----12p10----------------------------------10---11/12-10
D----------------12-------12p10----------------------10-12--------------
A-------------------------------12p10----------10-12--------------------
E-------------------------------------13p10-13--------------------------


e-----------------------------------------------------------------------
B-----------------------------------------------------------------------
G-12/13\12p10-12--10-12h13-10-12--10-12h13-10-12-10~-----h12.-----------
D-----------------------------------------------------------------------
A-----------------------------------------------------------------------
E-----------------------------------------------------------------------


Part 4

   Fmaj7
e-----------------------------------------------------------------------
B-----------------------------------------------------------------------
G-----------------------------------------------------------------------
D--12h14~-----------12h14-----12h14-10h12---p10----10-------------------
A-----------------------------------------------12----12.---------------
E-----------------------------------------------------------------------

   Gm7
e-----------------------------------------------------------------------
B-------13----------------------------13--------------------------------
G----------12(14)-----(12)-10------------12(14)-----12-10-10~---h12.----
D-----------------------------12.---------------------------------------
A-----------------------------------------------------------------------
E-----------------------------------------------------------------------

   Dm                      Gm7
e-----------------------------------------------------------------------
B-------13(15)----------------(13)p10.----------------------------------
G-----------------------------------------------------------------------
D-----------------------------------------------------------------------
A-----------------------------------------------------------------------
E-----------------------------------------------------------------------

   Am7                                                   D7
e------13(15)-------13(15)-------13(15)---13(15)----------(13)----------
B-----------------------------------------------------------------------
G-----------------------------------------------------------------------
D-----------------------------------------------------------------------
A-----------------------------------------------------------------------
E-----------------------------------------------------------------------

                                                Gm7
e-10-13p10----10-10~----------------------------------------------------
B----------13------------13-10------------------------------------------
G------------------------------12(14)-----12-10-10~-------h12.----------
D-----------------------------------------------------------------------
A-----------------------------------------------------------------------
E-----------------------------------------------------------------------

                                                      Am7
e-10--------------------------------------------------------------------
B-----------------------------------------------10-11-13~-----------p10.
G----12(14)-12-10-10~---h12.--------------------------------------------
D-----------------------------------------------------------------------
A-----------------------------------------------------------------------
E-----------------------------------------------------------------------

        Dm            C                    Bmaj7
e-------12/13---------12---13---10h12---10h12p10------------------------
B-13.------------------------------------------------13p10.-------------
G-----------------------------------------------------------------------
D-----------------------------------------------------------------------
A-----------------------------------------------------------------------
E-----------------------------------------------------------------------

                 C#dim
e--------------------------------------------------------13.------------
B--------------------------------------------------13-15----------------
G-------------10-12/13\12p10-12-10-12.--------12h14---------------------
D-------10-12-----------------------------------------------------------
A-10/12-----------------------------------------------------------------
E-----------------------------------------------------------------------

  Dm                                                                Bdim
e----13(15)---13(15)---13(15)---13(15)---13(15)---13(15)---13(15)~~~----
B-----------------------------------------------------------------------
G-----------------------------------------------------------------------
D-----------------------------------------------------------------------
A-----------------------------------------------------------------------
E-----------------------------------------------------------------------


e-(13)p10.------------------15'---13.--15(16)(15)-13h15-13~-----h15.----
B-----------------------------------------------------------------------
G-----------------------------------------------------------------------
D-----------------------------------------------------------------------
A-----------------------------------------------------------------------
E-----------------------------------------------------------------------


Part 5

  Bmaj7                                          C
e-----------------------------------------------------------------------
B-13(15)--------------------13-10----10---------------------------------
G---------------------------------12----12~-----10.---------------------
D-----------------------------------------------------------------------
A-----------------------------------------------------------------------
E-----------------------------------------------------------------------

                             Am7
e-----------------------------------------------------------------------
B-15.---15(17)---------13-10-13---------p10.----------------------------
G-----------------------------------------------------------------------
D-----------------------------------------------------------------------
A-----------------------------------------------------------------------
E-----------------------------------------------------------------------

   Gm7                                                       Am7
e------15(17)---15(17)---15(17)---15(17)---15(17)---15(17)---15-13.-----
B-----------------------------------------------------------------------
G-----------------------------------------------------------------------
D-----------------------------------------------------------------------
A-----------------------------------------------------------------------
E-----------------------------------------------------------------------

        Bmaj7
e-----------------------------------------------------------------------
B-18-15----------15----------15----------15----------15----------15-----
G-------17(19)------17(19)------17(19)------17(19)------17(19)----------
D-----------------------------------------------------------------------
A-----------------------------------------------------------------------
E-----------------------------------------------------------------------

   C                       C/E
e-----------------------------------------------------------------------
B--18-15h18p15----15----------------------------------------------------
G--------------17----17-14-17-14h17p14----14----------------------------
D--------------------------------------17----17-17p15--15h17-15~---h17.-
A----------------------------------------------------17-----------------
E-----------------------------------------------------------------------

   Am7        Gm7
e--------------13(15)-----13-10h13p10----10-----------------------------
B-------------------------------------13----13-10-----------------------
G-------------------------------------------------12(14)-12-10----10~---
D--------------------------------------------------------------12-------
A-----------------------------------------------------------------------
E-----------------------------------------------------------------------

  Bmaj7
e-------15(17)-------15(17)---15(17)---15(17)---15(17)---15(17)--(15)p13
B-----------------------------------------------------------------------
G-----------------------------------------------------------------------
D-----------------------------------------------------------------------
A-----------------------------------------------------------------------
E-----------------------------------------------------------------------

  C                            Am7
e-15-13h15~--------------15(17)---13----13-15.---15---(17)--------------
B------------------------------------15---------------------------------
G-----------------------------------------------------------------------
D-----------------------------------------------------------------------
A-----------------------------------------------------------------------
E-----------------------------------------------------------------------

                              Gm7
e-13h15.--13----13~---\\\--------------13-13~---------------------------
B------------15------------------13/15--------15-13---------------------
G---------------------------------------------------14\12-10----10------
D------------------------------------------------------------12---------
A-----------------------------------------------------------------------
E-----------------------------------------------------------------------

   Am7                     Bmaj7
e-------------13~---h15.-----------17-20-20p17-20-20p17-20-20-20p17.----
B-------13h15-----------------------------------------------------------
G-12/14-----------------------------------------------------------------
D-----------------------------------------------------------------------
A-----------------------------------------------------------------------
E-----------------------------------------------------------------------

  C/E                                                        Am7
e------20(22)----------20(22)-------------20(22)---20(22)---------------
B-----------------------------------------------------------------------
G-----------------------------------------------------------------------
D-----------------------------------------------------------------------
A-----------------------------------------------------------------------
E-----------------------------------------------------------------------

                                          ?
e-17--20-18-17.--18.--20-18-17-18-17~------17-17-17-17-17~---17-17---\--
B------------------------------------------18-18-18-18-18~---18-18---\--
G-----------------------------------------------------------------------
D-----------------------------------------------------------------------
A-----------------------------------------------------------------------
E-----------------------------------------------------------------------

  Gm7
e-----------------------------------------------------------------------
B------------18-18----18.---18-------20(22).------18~-------------------
G---19.---19-------19----------19.-------------19-----------------------
D-----------------------------------------------------------------------
A-----------------------------------------------------------------------
E-----------------------------------------------------------------------


e-------------------17.---20--------------------------------------------
B----18-18----18.------------20(22)-20-18-18--20.-----------------------
G-19-------19-----------------------------------------------------------
D-----------------------------------------------------------------------
A-----------------------------------------------------------------------
E-----------------------------------------------------------------------

  C
e---------------------------17----17----17--20-20-20-20-20-20-20--------
B----18-18----18-18----18-18----18----18--------------------------------
G-19-------19-------19--------------------------------------------------
D-----------------------------------------------------------------------
A-----------------------------------------------------------------------
E-----------------------------------------------------------------------


e-20-20-20-20-20(22)---20(22)---20(22)---20(22)-----(20)p17-20-17p20p17-
B-----------------------------------------------------------------------
G-----------------------------------------------------------------------
D-----------------------------------------------------------------------
A-----------------------------------------------------------------------
E-----------------------------------------------------------------------

  Gm7
e----17---------17---------17---------17---------17---------------------
B-20----20(22)-----20(22)-----20(22)-----20(22)----------18-\\\---------
G-----------------------------------------------------------------------
D-----------------------------------------------------------------------
A-----------------------------------------------------------------------
E-----------------------------------------------------------------------

                                                             C
e-13-10-13-10h13p10----10-----------------------------------------------
B-------------------13----13-10h13p10----10-----------------------------
G-------------------------------------12----12p10-----------------------
D-------------------------------------------------12~--\\---------------
A-----------------------------------------------------------------------
E-----------------------------------------------------------------------


e-------------------------------------------13-------13-------13------13
B----------------------------10-10-10-13h15----13h15----13h15----13h15--
G-------------------10-10-10--------------------------------------------
D-------12-12-12-12-----------------------------------------------------
A-12-12-----------------------------------------------------------------
E-----------------------------------------------------------------------


e-15p13-15p13-15p13-15p13-15p13-15p13-15~-\\\---------------------------
B-----------------------------------------------------------------------
G-----------------------------------------------------------------------
D-----------------------------------------------------------------------
A-----------------------------------------------------------------------
E-----------------------------------------------------------------------

 Gm7
e-15/17--20.--15/17--20.--15/17--20.--15/17--20.------------------------
B-------------------------------------------------20(22)-20-18-18~--20.-
G-----------------------------------------------------------------------
D-----------------------------------------------------------------------
A-----------------------------------------------------------------------
E-----------------------------------------------------------------------


Chords

 Fmaj7   Gm7    Am7    Dm      D     D7   Bmaj7  C#dim   Bdim   C/E   C

e-----------------------5------2------2---------------------------------
B-1-------3------5------6------3------1-----6------5------5------5----5-
G-2-------3------5------7------2------2-----7------3------6------5----5-
D-2-------3------5------7------0------0-----7------5------5------5----5-
A-x-------x------x------5------0------0-----x------4------x------3----3-
E-1-------3------5--------------------------6-------------6------0------

   ?
e--6--------------------------------------------------------------------
B--6--------------------------------------------------------------------
G--6--------------------------------------------------------------------
D--5--------------------------------------------------------------------
A-----------------------------------------------------------------------
E-(4)-------------------------------------------------------------------