20131023

ERIC CLAPTON I'M TORE DOWN TAB (LIVE IN HYDE PARK 1996)

Eric Clapton plays I'm Tore Down live in Hyde Park, in 1996.
Right after the song they also play Have You Ever Loved A Woman.
See the TAB of his playing in the first song below.


ERIC CLAPTON I'M TORE DOWN TAB

PDF >>

Intro

e------10'--------------------------------------------------------------
B-8.--------------------------------------------------------------------
G-----------------------------------------------------------------------
D-----------------------------------------------------------------------
A-----------------------------------------------------------------------
E-----------------------------------------------------------------------


e-(11)(10)p8-10p8----8~-------------------------------------------------
B-----------------10--------11'---8-------------------------------------
G-----------------------------------10'---10-8h10p8----8'---------------
D---------------------------------------------------10------10----------
A--------------------------------------------------------------10~---10~
E-----------------------------------------------------------------------


Verse 1

e-----------------11(13)-----11'-----8----------------------------------
B-----10.------------------------------8--------------------------------
G-----9.---------------------------------10-8'--------------------------
D-----10.----------------------------------------10~--------------------
A-----------------------------------------------------------------------
E-----------------------------------------------------------------------



e-----8.----------11(13)-----11'-----8----------------------------------
B-----8.-------------------------------8--------------------------------
G-----8.---------------------------------10-8'--------------------------
D----(7)-----------------------------------------10~--------------------
A----(8)----------------------------------------------------------------
E-----------------------------------------------------------------------


e----------8--------8---------------------------------------------------
B--------8---11(13)---8-------------------------------------------------
G-10(12)----------------10(12)(10)p8----8'------------------------------
D------------------------------------10------10-------------------------
A-----------------------------------------------10~---10~---------------
E-----------------------------------------------------------------------


Chorus

e-----------------------------------------------------------------------
B-8.----------------10-----8.--------------------------8.---------------
G-8h9.--------------10-----8h9.------------------------9.---------------
D-8.----------------10-----8.-------------------------10.---------------
A-----------------------------------------------------------------------
E-----------------------------------------------------------------------


e-----------------------------8------------8----------------------------
B-10.-----------------------8---11(13)-------8--------------------------
G-8.-----------------10(12)--------------------10-8'--------------------
D-10.--------------------------------------------------10---------------
A---------------------------------------------------------10~-----------
E-----------------------------------------------------------------------


e----------8----------8-------------------------------------------------
B--------8---11(13)-----------------------------------------------------
G-10(12)----------------10(12)(10)p8----8'------------------------------
D------------------------------------10------10-------------------------
A-----------------------------------------------10~---10~---------------
E-----------------------------------------------------------------------


e-----------------------------------------------------------------------
B--8.----------------8.----------------8.---------------8.--------------
G--9.----------------9.----------------9.---------------9.--------------
D-10.---------------10.---------------10.--------------10.--------------
A-----------------------------------------------------------------------
E-----------------------------------------------------------------------


e-----------------------------------------------------------------------
B--8.----------------8.----------------8.-------------------------------
G--9.----------------9.----------------9.-------------------------------
D-10.---------------10.---------------10.-------------------------------
A-----------------------------------------------------------------------
E-----------------------------------------------------------------------


e-----------------11(13)-----11'-----8----------------------------------
B-----10.------------------------------8--------------------------------
G-----8.---------------------------------10-8'--------------------------
D-----10.----------------------------------------10~--------------------
A-----------------------------------------------------------------------
E-----------------------------------------------------------------------


e----------8----------8-------------------------------------------------
B--------8---11(13)-----------------------------------------------------
G-10(12)----------------10-8----8'--------------------------------------
D----------------------------10------10---------------------------------
A---------------------------------------10~---10~-----------------------
E-----------------------------------------------------------------------


Solo

e-------8.--------------11'---------------------------------------------
B-----8------/13~----------------------11'---8--------------------------
G-8-9--------/12~------------------------------10-----8h9---------------
D----------------------------------------------------------10-----------
A-------------------------------------------------------------8-----7.--
E-----------------------------------------------------------------------


e---------8-11'-----8h10p8----8~------8~------8h10.---------------------
B-8.---10------------------10------10------10---------------------------
G-----------------------------------------------------------------------
D-----------------------------------------------------------------------
A-----------------------------------------------------------------------
E-----------------------------------------------------------------------


e-----------------------------15----------------------------------------
B-16'-----13h15p13----13-----------13-13~---15'-------------------------
G------------------14------14-------------------------------------------
D-----------------------------------------------------------------------
A-----------------------------------------------------------------------
E-----------------------------------------------------------------------


e-----------------------------------------------------------------------
B-11-8-10----8-------11-13----11-13----11-------------------------------
G---------10---10/12-------12-------12----12-12\10-8----8'--------------
D----------------------------------------------------10----10-----------
A-------------------------------------------------------------10~-------
E-----------------------------------------------------------------------


e------8----11'-----8---------------------------------------------------
B-8-10---10-----------8-------------------------------------------------
G-----------------------10-8h9------------------------------------------
D---------------------------------10-10~--------------------------------
A-----------------------------------------------------------------------
E-----------------------------------------------------------------------


e-----------------------------------------------------------------------
B----------10------8--------------------------18(20)---18(20)-----------
G-8h9p8----10------8h9------------------17.-----------------------------
D-------10------10-------10---------------------------------------------
A---------------------------10---///------------------------------------
E-----------------------------------------------------------------------


e-----------------------------------------------------------------------
B-----18(20)-----16'----------------------16'---------------------------
G------------------------17~-----14---h17-------------------------------
D-----------------------------------------------------------------------
A-----------------------------------------------------------------------
E-----------------------------------------------------------------------


e-------8---------------------------------------------------------------
B-----8---11-8-10----8----------11--------------------------------------
G-8-9-------------10---10/12~------12\10p8----8'------------------8.----
D------------------------------------------10------10---8-10~-----------
A-----------------------------------------------------------------------
E-----------------------------------------------------------------------


e-------------------------------------8------8-10p8---------------------
B-----------------------------------8---8-11--------11-8----8-----------
G------------8----10----8-10-10(12)----------------------10---8h9-------
D---------10---10----10-------------------------------------------10----
A-8.---10------------------------------------------------------------10-
E-----------------------------------------------------------------------


e-----------------------------------------------------------------------
B----------------------16'------18(20)---18-16h18p16----18.-------------
G------------/17.---17-------17----------------------17-----------------
D-----------------------------------------------------------------------
A-8---7.----------------------------------------------------------------
E-----------------------------------------------------------------------


e-----------------------------------------------------------------------
B-18(20).-16-18----16-18p16-------------16------------------------------
G---------------17----------17-17-17~------17-\\\-----------------------
D-----------------------------------------------------------------------
A-----------------------------------------------------------------------
E-----------------------------------------------------------------------


e----------8------------------------------------------------------------
B--------8---11(13)---8-------------------------------------------------
G-10(12)----------------10(12)(10)p8----8'------------------------------
D------------------------------------10------10-------------------------
A-----------------------------------------------10---///----------------
E-----------------------------------------------------------------------


e-----------------------------------------------------------------------
B-12/13-13------15'---13h15p13-------15'---13h15p13---------------------
G-13/14------14----------------14.------------------14.-----------------
D-----------------------------------------------------------------------
A-----------------------------------------------------------------------
E-----------------------------------------------------------------------


e-----------------------------------------------------------------------
B-15'---13----13-------15'---13h15p13-------15'----13h15p13-------------
G----------15----14.------------------14.-------------------14.---------
D-----------------------------------------------------------------------
A-----------------------------------------------------------------------
E-----------------------------------------------------------------------


e-----------------------------------------------------------------------
B-15'---13h15p13-------15'-----13h15p13-------15'---13----13-15(17)-----
G----------------14.--------------------14.------------14---------------
D-----------------------------------------------------------------------
A-----------------------------------------------------------------------
E-----------------------------------------------------------------------


e-----------------------------------------------------------------------
B-13-15----13-15-(17)(15)-13----13~---13-13h15.-------------------------
G-------14-------------------14-----------------------------------------
D-----------------------------------------------------------------------
A-----------------------------------------------------------------------
E-----------------------------------------------------------------------


e-----------------------15----------------------------------------------
B----13-15'-13-15----13----13-13~~~-------------------------------------
G-14--------------14----------------------------------------------------
D-----------------------------------------------------------------------
A-----------------------------------------------------------------------
E-----------------------------------------------------------------------


e-----------------------------------------------------------------------
B-16'-13----13-15(17)-----13h15p13----13.-------------------------------
G--------14------------------------14-----------------------------------
D-----------------------------------------------------------------------
A-----------------------------------------------------------------------
E-----------------------------------------------------------------------


e-----------------------------------------------------------------------
B-16'---16'---16'-----16'---p15p13.-------------------------------------
G-14'---14'---14'-----14'-----------------------------------------------
D-----------------------------------------------------------------------
A-----------------------------------------------------------------------
E-----------------------------------------------------------------------


e-----------------------------------------------------------------------
B----11----11-13-11----11----11-----------------------------------------
G-12----12----------12----12----12\10-8---------------------------------
D---------------------------------------10-10-\\\-----------------------
A-----------------------------------------------------------------------
E-----------------------------------------------------------------------


e-----------------------------------------------------------------------
B-------------------------------------8---------------------------------
G-------------------------------------8h9p8-----------------------------
D------8----8----8----------8/10~---------------------------------------
A-8/10---10---10---10\8p6-------------------10~-------------------------
E-------------------------8---------------------------------------------


Chorus 2

e-----------------------------------------------------------------------
B--8.----------------8.----------------8.---------------8.--------------
G--9.----------------9.----------------9.---------------9.--------------
D-10.---------------10.---------------10.--------------10.--------------
A-----------------------------------------------------------------------
E-----------------------------------------------------------------------


e-----------------------------------------------------------------------
B--8.----------------8.----------------8.-------------------------------
G--9.----------------9.----------------9.-------------------------------
D-10.---------------10.---------------10.-------------------------------
A-----------------------------------------------------------------------
E-----------------------------------------------------------------------


e---------------------------8------------8------------------------------
B-10-----\----------------8---11(13)-------8----------------------------
G--8-----\---------10(12)--------------------10-8h9---------------------
D-10-----\------------------------------------------10------------------
A------------------------------------------------------10-8---7.--------
E-----------------------------------------------------------------------


e----------8--------8---------------------------------------------------
B--------8---11(13)---8-------------------------------------------------
G-10(12)----------------10(12)(10)p8----8'------------------------------
D------------------------------------10------10-------------------------
A-----------------------------------------------10~---10~---------------
E-----------------------------------------------------------------------


e---------------------------12---x-11-12.-----12---x-11-12~---\---------
B-10-----\------------------11---x-10-11.-----11---x-10-11~---\---------
G--8-----\------------------12---x-11-12.-----12---x-11-12~---\---------
D-10-----\--------------------------------------------------------------
A-----------------------------------------------------------------------
E-----------------------------------------------------------------------


e--------------------------11(13)-----11'-----8-------------------------
B-10-----\\\------------------------------------8-----------------------
G--8-----\\\--------------------------------------10-8'-----------------
D-10-----\\\----------------------------------------------10~-----------
A-----------------------------------------------------------------------
E-----------------------------------------------------------------------


The End

e------8-10-(11)(10)p8----8~------10'-----4-3---------------------------
B-8-10-----------------10------10---------4-3---------------------------
G-----------------------------------------4-3---------------------------
D-----------------------------------------3-2---------------------------
A-----------------------------------------4-3---------------------------
E-----------------------------------------------------------------------