20131010

JOHN MAYER SOMETHING LIKE OLIVIA TAB (ACOUSTIC)


John Mayer plays Something Like Olivia in a small studio with an acoustic guitar.
And he just says "... cool ..." at the end. You may find some good ideas and some cool licks beside the solo in this version. See the TAB below.



JOHN MAYER SOMETHING LIKE OLIVIA TAB

PDF >>

Intro

e---------3.------------------------------3-x---------------------------
B---------3.------------------------------3-x---------------------------
G---------4.------------------------------4-x---------------------------
D---------5.------------------------------5-x-----5h7-5~----------------
A-----------------5h7-5~--5-7-------------------------------7-----------
E-3---3-------5-7-------------7-5-3-x-3-------5-7-------------7-5-------
   

e---------3-x-------------------------------3-x-------------------------
B---------3-x-------------------------------3-x-------------------------
G---------4-x-------------------------------4-x-------------------------
D---------5-x-------------------------------5-x-----5h7-5~--x-----------
A-----------------5h7-5~----7---------------------------------7---------
E-3-x-3-------5-7-------------5/7-5-3-x-3-------5-7-------------7-5-----
  

Verse 1

e---------3-x-----------------------------8-x---------------------------
B---3-----3-x-------------------------5---5-x---------------------------
G---4-----4-x-------------0-------5---5---5-x---------------------------
D---5-----5-x-------------0-------5---5---5-x-----5h7-5~----------------
A-----------------5h7-5~--5-5-----5h7---------5-7-----------7-----------
E-3---3-------5-7-------------7-5-----------------------------7\5-------



e---------3-x-------------------------------3-x-------------------------
B---------3-x-------------------------------3-x-------------------------
G---------4-x-------------------------------4-x-------------------------
D---------5-x-------------------------------5-x-------------------------
A-----------------5h7-5~----7-----------------------5h7-5~----5-7-x-----
E-3-x-3-------5-7-------------5/6-5-3-x-3-------5-7---------------------


e---------8-x--------------------------------8-x------------------------
B-----5---5-x--------------------------------5-x------------------------
G-5---5---5-x--------------------------------5-x------------------------
D-5---5---5-x-----5h7------------------------5-x-------5h7-x-x----------
A-5h7-7-------5-7-----5h7~--7-7-5h7-5h7~---------5-7-x-----x-x-5h7------
E-----------------------------------------------------------------------


e---------3-x-----------------------------3-x---------------------------
B---------3-x-----------------------------3-x---------------------------
G---------4-x-----------------------------4-x---------------------------
D---------5-x-----------------------------5-x-------------x-------------
A-----------------5h7-5~----7---------------------5h7-5~--x-----0-------
E-3-x-3-------5-7-------------7\5-3-x-3-------5-7---------x---7---------


e---------10x-----------------------------8-x---------------------------
B---------7-x-------------------------5---5-x---------------------------
G-7---7---7-x-----7---7-7-x-7-----5---5---5-x-----x-5-5-5-x-5-5-0-------
D-7---7---7-x-----7h9-7-7-x-7-----5---5---5-x-----x-7-7-7-x-7-7-0-------
A-7h9-9-------7h9-------------9-7-5h7---------5h7-x-------x-------------
E-----------------------------------------------------------------------


e---------3-x-----------------------------3-x---------------------------
B---------3-x-----------------------------3-x---------------------------
G---------4-x-----------------------------4-x---------------------------
D---------5-x-----------------------------5-x---------------------------
A-----------------5h7-5~----7---------------------5h7-5~--x-5-----------
E-3---3-------5h7-------------7\5-3-x-3-------5h7-------------7-5-------


Verse 2

e---------3-x-----------------------------------------------------------
B---------3-x-------------x---------------5-x-------------5-5-----------
G---------4-x-------------x-------5---5-5-5-x-------------5-5-----------
D---------5-x-------------x-------5---5-5-5-x-----5h7-5-5-5-5-----------
A-----------------5h7-5~--x-7-----5h7-7-7-7-x-5-7-------------7\5-------
E-3-x-3-------5-7-------------7-5---------------------------------------


e---------3-x-------------------------------3-x-------------------------
B---------3-x-------------------------------3-x-------------------------
G---------4-x-------------------------------4-x-------------------------
D---------5-x-------------------------------5-x-------------------------
A-----------------5h7-5~--5-7-------------------------5h7-5~------------
E-2/3-3-3-----5-7-------------6\7-6-3-x-3-------3/5h7-----------7\5-3---


e---------8-x-----------------------------8-x---------------------------
B---------5-x-------------------------5-5-5-x---------------------------
G-----5---5-x-----------------x-x-5---5-5-5-x---------------------------
D-----5---5-x-----5h7---------x-x-5---5-5-5-x-----5h7-----5-------------
A-5h7-7-------5-7-----5-7-7\--x-x-5h7-7-7-----5-7-----5-7---7-7\--------
E-----------------------------------------------------------------------


e---------3-x-------------------------------3-x-------------------------
B---------3-x-------------------------------3-x-------------------------
G---------4-x-------------------------------4-x-------------------------
D---------5-x-------------------------------5-x-------------------------
A-----------------5h7-5~--5-7-----------------------5-x-----5h7-7-8-----
E-2/3-3-3-----5-7-------------5\6-5-3-x-3-------5-7-----7---------------


e-----------------------------------------------------------------------
B-----7-7-7-x-----x-7-7---7-7-7-7----------8-x---------5-x--------------
G-----7-7-7-x-7---x-7-7---7-7-7-7------5---5-x---------5-x--------------
D-----7-7-7-x-7---x-7-7---7-7-9-7------5---5-x-----5h7-5-x--------------
A-8/9-9-9-----7h9---9-7h9-9-9-----/5h7-7-------5h7---------7-7-5\-------
E-----------------------------------------------------------------------


e---------3-x-------------------------------3-x-------------------------
B---------3-x-------------------------------3-x-------------------------
G---------4-x-------------------------------4-x-------------------------
D---------5-x-------------------------------5-x-------------------------
A-----------------5h7-5~--5-7-----------------------5h7-5~--5-5-7-x-----
E-3-x-3-------5-7-------------6\7-5-3-x-3-------5-7---------------------
 


Solo by 1:25

e-----------------------------------------------------------------------
B-----------x-x---------------------------------------------------------
G-3/4-3/4---x-x---------------------2/3-2/3---x-x-------------x---------
D-2/3-2/3---x-x---------------------1/2-1/2---x-x-----5h7-5~--x-5-------
A-------------------5h7-5~--x-5-7-x-2/3-2/3---x-x-5-7---------x---7-5---
E---------------5-7-----------------------------------------------------


e-------------------------------------------3-x-------------------------
B-----------3-x-----------------------------3-x-------------------------
G-3/4-3/4---4-x-----0h2-0-----x-------------4-x-------------------7-x---
D-2/3-2/3---5-x---2-----------x-------------5-x-----------5-7/8/9-------
A---------------5-----------7\x-----------------------5-7---------------
E------------------------------/5-5-3-x-3-------5h6h7-------------------


e-----------------------------------------------------------------------
B-8---8-8-x-x-8-8-x---8---8-x-----8---8-8-x-x-8-8-x---8---8-x-----------
G-7h9-9-9-x-x-7-7-x---7---9-x-0-x-7h9-9-9-x-x-7-7-x---7---9-x-----------
D-x---x-x-x-x-x-x-x---9---x-x-----x---x-x-x-x-x-x-x---9---x-x-----------
A-x---x-x-----x-x-----x---x-x-----x---x-x-----x-x-----x---x-x-10\\\-----
E-8---8-8-----8-8-----8---8-x-----8---8-8-----8-8-----8---8-x-----------


e-------3-3-x-------------------------------3-x-------------------------
B-------3-3-x-------------------------------3-x-------------------------
G-------4-4-x-------------------------------4-x-------------------------
D-------5-5-x-------------------------------5-x---------5-7/8\7-5---5---
A-----------------5h7-5~--5-7-----------------------5h7-----------7-----
E-2/3-3-------5h7-------------5/6\5-3-x-3-------5/7---------------------


e-----------------------------------------------------------------------
B-----7---7-x-----------------------------------------------------------
G-----7---7-x-----7---------7-----------5-x-x---5-----------------------
D-----7---7-x-----7h9-------7-----------5-x-x---5-7/8-7p5---------------
A-7h9---------7h9-----7-8-9---9\7-5-6-7-------7-----------7-------------
E-----------------------------------------------------------5/6-3-5/6-3-


e---------3-x-----------------------------3-x---------------------------
B---------3-x-----------------------------3-x---------------------------
G---------4-x-----------------------------4-x---------------------------
D-------5-5-x-----5h7-5~------------------5-x---------------------------
A-------------5h7---------7-5---------------------5h7-5~---x-5----------
E-3-x-3-----------------------6\5-3-x-3-------5-7--------------7\-------


Verse 3

e---------3-x-----------------------------------------------------------
B---------3-x------------------------------8-x--------------------------
G---------4-x--------------------------5-5-5-x--------------------------
D---------5-x--------------------------5-5-5-x-----5h7-----5-x----------
A-----------------5h7-5~--x-5-----/5h7-7-7-----5-7-----5-7-----7-5------
E-2/3-3-3-----5-7-------------7\5---------------------------------------


e---3-----3-x-----------------------------3-3-x-7\5-3-x-----------------
B---3-----3-x-----------------------------3-3-x-------x-----5-x---------
G---4-----4-x-----------------------------4-4-x-7\5-4-x-----5-x---------
D---5-----5-x-----------------------------5-5-x-------------5-x---------
A-----------------5h7-5~--5-7---------------------------5/7-------------
E-3---3-------5-7-------------5/6-5-3-x-3-----------------------3-------


e-----------------------------------------------------------------------
B-------8-x---------------------------8-x-------------------------------
G-----5-5-x---------------------------5-x-------------------------------
D-----5-5-x-----x-7-----x-5-----------5-x-----5h7-----5-x---------------
A-5/7-7-----5h7-----5h7-----5h7-5h7-7-----5h7-----5h7-----7\------------
E-----------------------------------------------------------------------


e-------3-x-------------------------------3-x---------------------------
B-------3-x-------------------------------3-x---------------------------
G-------4-x-------------------------------4-x---------------------------
D-------5-x-----------------------------5-5-x---------------------------
A---------------5h7-5~--5-7-----------------------5h7-5~--5---5h7-------
E-2/3-3-----5-7-------------5/6-5-3-x-3-------5-7-----------7-----------


e-----------------------------------------------------------------------
B-------7-x----------------------------5-x------------------------------
G-7-----7-x----------------------5-----5-x-----5------------------------
D-7-----7-x-7h9---------7-7------5-----5-x-5---5h7-7---5-5--------------
A-7h9-9---------7h9-9-------9\---5h7-7-----5h7-------------7\-----------
E-----------------------------------------------------------------------


e---------3-x-------------------------------3-x-------------------------
B---------3-x-------------------------------3-x-------------------------
G---------4-x-------------------------------4-x-------------------------
D---------5-x-------------------------------5-x---------5h7---5---------
A-----------------5h7-5~--5-7-----------------------5h7---------7-5\----
E-2/3-3-------5-7-------------5/6-5-3-x-3-------5-7---------------------


Verse 4

e-----------3-x---------------------------------------------------------
B-----------3-x-----------------------------8-x-------------------------
G-----------4-x-------------------------5-5-5-x-------------------------
D-----------5-x---------------------5---5-5-5-x-----5h7-5~--5-----------
A-------------------5h7-5h7-5h7-5---5h7-7-7-----5h7-----------7-5\------
E-2/3---3-------5h7---------------7-------------------------------------


e---------3-x-----------------------------3-x---------------------------
B---------3-x-----------------------------3-x---------------------------
G---------4-x-----------------------------4-x---------------------------
D---------5-x-----------------------------5-x---------------------------
A-----------------5h7-5~--5-5---------------------5h7-5~--x-5-----------
E-3-x-3-------5-7-------------7\5-3-x-3-------5-7-------------7\5-------


e-----------------------------------------------------------------------
B---------8-x----------------------------8-x-x--------------------------
G---------5-x----------------------------5-x-x--------------------------
D-----5---5-x-----5h7-5~---x-x-----5---5-5-x-x-----5h7-5~---------------
A-5/7-7-------5h7--------------5h7-5h7-7-------5h7---------7-5----------
E--------------------------------------------------------------7\5------


e---------3-x-----------------------------3-x---------------------------
B---3-----3-x-----------------------------3-x---------------------------
G---4-----4-x-----------------------------4-x---------------------------
D---5-----5-x-----------------------------5-x-------------5-------------
A-----------------5h7-5~--5-5---------------------5h7-5h7---7-5h7-------
E-3---3-------5h7-------------7\5-3-x-3-------5h7-----------------------


e-----------------------------------------------------------------------
B---------7-x-----------------------------8-x---------------------------
G---------7-x-----7-------------------5-5-5-x-x-x-5---5-5---------------
D-7---7---7-x-----7h9p7---x-x-----5---5-5-5-x-x-x-5---5-5-7-7-----------
A-7h9-9-------7h9-------9-----9-7-5h7-7-7---------5h7-7-7-----7/9-------
E-----------------------------------------------------------------------


e-----------------------------------------------------------------------
B---------7-x-------------------------------5-x-------------8-x---------
G-----7-7-7-x-----7---------------------5-5-5-x-x-x-----5-5-5-x---------
D-7---7-7-7-x-----7h9p7---x-x-------5---5-5-5-x-x-x-5---5-5-5-x---------
A-7h9-9-9-----7h9-------9-x-x-7h9p7-5h7-7-7---------5h7-7-7-----7/9-----
E-----------------------------------------------------------------------


e-------------------7---------------------------------------------------
B---------10x-----x-7-x-x---------------------------------------x-x-x-x-
G-----7-7-7-x-----x-7-x-x---------5-----------------------------x-x-x-x-
D-7---7-7-7-x-----x-7-x-x-7-x-----5-----------------------------x-x-x-x-
A-7h9-9-9-----7h9-------------9-7-7-----------------------------x-x-x-x-
E-----------------------------------------------------------------------



The End

e---------3-x-x-------------------------------3-x-7-5-3-x---------------
B---------3-x-x-------------------------------3-x-x-x-x-x---------------
G---------4-x-x-------------------------------4-x-7-5-4-x---------------
D---------5-x-x-------------------------------5-x-------x-----5-7-5-----
A-------------------5h7-5~--5-7---------------------------5/7-----------
E-3---3-3-------5-7-------------5/6-5-3-x-3-3---------------------------


e---------3-x-8-7-5.--3-x----------------3-x-7-7-7-7-x-5-x-3-x----------
B---------3-x-x-x-x.--x-x----------------3-x-x-x-x-x-x-x-x-x-x-5-x------
G---------4-x-9-7-5.--4-x----------------4-x-7-7-7-7-x-5-x-4-x-5-x------
D---------5-x-----------x-----5\---------5-x----------------------------
A-------------------------5h7-------------------------------------------
E-3-x-3-3------------------------2/3-3----------------------------------


e-2/3-3-----------------------------------------------------------------
B-2/3-3-----------------------------------------------------------------
G-3/4-4-----------------------------------------------------------------
D-4/5-5-----------------------------------------------------------------
A-x---------------------------------------------------------------------
E-2/3-------------------------------------------------------------------