20131021

LET IT BE SOLO TAB (3 VERSION GUITAR COVER BY JUN626HYPER)

JUN626HYPER plays a great medley of The Beatles - Let It Be guitar solos.
The original video title says: Let it be guitar solo (3 version cover)
Single Version ~ Anthology 3 Version ~ Album Version (Mid and Ending Solo)
See the TAB under the video.


LET IT BE SOLO TAB

GP5 + GP6 + PDF >>

Solo 1

e-----------------------------------------------------------------------
B-----------------------------------------------------------------------
G-----------------------------------------------------------------------
D-----------------------------------------------5---7p5-----------------
A-------3---3---5(7)(5)-3---5---5-------3-5/7-----------7\5-3-----------
E---3h5-----------------------------3h5---------------------------------


e-----------------------------------------------------------------------
B-------------------------8-10p8----------------------------------------
G-------------------5-7/9--------9\7-5---7p5----------------------------
D-------5-5---5---7--------------------------7-5------------------------
A---5/7--------------------------------------------7-5---3--------------
E-----------------------------------------------------------------------


e-----------------------------------------------------------------------
B--------------------------------------------------8---10p8-------------
G-----------------------7/9.---7-5h7---------7/9------------9\7-5-------
D-------2-------5/7---5--------------7---5h7----------------------------
A-----------------------------------------------------------------------
E---3h5-----3/5---------------------------------------------------------




e--------------8------------10(12).--10.--8-----------------------------
B------------------10p8-----------------------10-8-----10p8-------------
G------5-7/9------------9----------------------------9------9\7-5.--5---
D---5h7-----------------------------------------------------------------
A-----------------------------------------------------------------------
E-----------------------------------------------------------------------




DOWNLOAD THIS TAB IN GUITAR PRO



  • click 'Free Download'
  • add your e-mail address
  • you will get an e-mail with your download links (in a few seconds)
  • download the Guitar Pro 6 tab + GP5 + PDF for free
  • and that's all ...


Guitar Pro: a complete workshop for guitarists at an affordable price