20131017

THE BANGLES ETERNAL FLAME TAB (FINGERSTYLE GUITAR COVER BY RUEL)

There is a cool fingerstyle guitar cover of The Bangles - Eternal Flame played by Ruel.
Very nice playing Ruel.
See the TAB below.



THE BANGLES ETERNAL FLAME TAB

PDF >>

Intro

e-7-------7-------8-------8-------7-------7-------8---------------------
B-8-------8-------8-------8-------8-------8-------8-------5-3-0---------
G-----7-------7-------7-------7-------7-------7-------7-----------------
D-----------------------------------------------------------------------
A-----------------------------------------------------------------------
E-----------------------------------------------------------------------


Part 1

e-----------------------------------------0-----------------------------
B---------0---1-3-----------------3---3-------3-------------------------
G-0-------0-------------------0---0-----------------------0---2---------
D-----0-------------------0-------2-------------------4-----------------
A---------------------2-----------3---------------5---------------------
E-3---------------0-----------------------------------------------------


e---------------3-----3---3---3-------0---------------------------------
B---------0---3-------------------------------1---5---3---------0-------
G---------0-------------------0-----------0---------------0---2---------
D-----0-------------------2-----------2-----------0-------0-------------
A---------------------2-----------3-------------------------------------
E-3---------------0-----------------------------------------------------



e---------3---3-----------7---7-----------------------------------------
B-----------------7-----------7---------------8---5---7---8---5---------
G-------------0---------------8-----------9-------6---------------------
D---------2---------------9-----------9-------------------7-------------
A-----2---------------9-----------7---------------0---------------------
E-0---------------7-----------------------------------------------------


e-5---------------------------------------------------------------------
B---------7-------3-----------3---3-------3-------3---3-----------------
G-----7-------7-----------4---------------5-----5---------5-------------
D-0-------------------4---------------5-------5-------5-------5---------
A-----------------2---------------0---------------0---------------------
E-----------------------------------------------------------------------


e---------3-------2---3-------------------------------------------------
B-3-----------3---------------3-----------------------------------------
G-5---------------5-------5---------------------------------------------
D-5---5-----------5-------5---------------------------------------------
A-0---------------0-----------------------------------------------------
E-----------------------------------------------------------------------



DOWNLOAD THE COMPLETE TAB HERE





  • click 'Buy Now' and send $6  (or 'Add to Cart' if you want to buy more tabs)
  • add your e-mail address
  • you will get a confirmation e-mail with your download links (in a few seconds)
  • download the full Guitar Pro 6 tab + GP5 + PDF
  • then start to learn the full song - that's all ...

IF YOU DIDN'T GET YOUR DOWNLOAD LINK, PLEASE CONTACT US HERE >>

SEND YOUR GUITAR TAB REQUEST HERE >>
MORE ON GUITAR TABS A-Z >>

Guitar Pro: a complete workshop for guitarists at an affordable price