20131002

ZEDD CLARITY TAB (FINGERSTYLE COVER BY JASON PURUGGANAN)

Nice fingerstyle guitar cover of Zedd - Clarity ft. Foxes played by Jason Purugganan.
Jason is using standard tuning with CAPO on the 1st fret.
See the TAB under the video.



ZEDD CLARITY FINGERSTYLE TAB

PDF >>

Intro (CAPO on 1st)

e---3p2-------3p2-------3p2-------3p2-------3p2-------3p2---------------
B-3-----3---3-----3---3-----3---3-----3---3-----3---3-----3-------------
G---------0---------0---------0---------0---------0---------0-----------
D-----------------------------------------------------------------------
A-----------------------------------------------------------------------
E-----------------------------------------------------------------------


e---3p2-----------3-----------------------------------------------------
B-3-----3-------3-------3-----------------------------------------------
G---------0---0-------0-------------------------------------------------
D-------------------------0---------------------------------------------
A-----------2-------3---------------------------------------------------
E-----------------------------------------------------------------------


Part 1

e---------------------0-------------------------------------------------
B-----3---3---0h1-3-------3---0h1-3---1---0-------------1---------------
G-----0-------------0---0---0-------0---0-----2-2-----------4-----------
D---2---2---2-----0-----------------------------------0---------0-------
A-3---------------------------------------2-----3-----------------------
E---------------------------------0-------------------------------------



e---------------------0-------------------------------------------------
B-----3---3---0h1-3-------3---0h1-3---1---0-----------------------------
G-----0-------------0---0---0-------0---0-----2-2p0---------------------
D---2---2---2-----0-----------------------------------------------------
A-0---------------------------------------2-----3-----------------------
E---------------------------------0-------------------------------------


e---------------------0-------------------------------------------------
B-----3---3---0h1-3-------3---0h1-3---1---0-------------1---------------
G-----0-------------0---0---0-------0---0-----2-2-----------4-----------
D---2---2---2-----0-----------------------------------0---------0-------
A-3---------------------------------------2-----3-----------------------
E---------------------------------0-------------------------------------


e---------------------0-------------------------------------------------
B-----3---3---0h1-3-------3---0h1-3---1---0-----------------------------
G-----0-------------0---0---0-------0---0-----2-2p0---------------------
D---2---2---2-----0-----------------------------------------------------
A-0---------------------------------------2-----3-----------------------
E---------------------------------0-------------------------------------


Part 2

e------3---3--------3---5---5-----------3---3-------0---3---7-8-7-------
B-----3----3---3.-3-3-----------3-------0---0---0-3---3-----------8-----
G----0---0---0--------2---2---2---0---0---0---0-------------------------
D-------------------0---------------------------------------------------
A---2-----------------------------------------------3-------------------
E-0---------------------------------3-----------------------8-----------


e-----3---3--------3---5---5-----------3---3-------0---3---7-8-7--------
B-----3-------3.-3-3-----------3-------0---0---0-3---3-----------8------
G---0---0---0--------2---2---2---0---0---0---0--------------------------
D------------------0----------------------------------------------------
A--------------------------------------------------3---3----------------
E-0--------------------------------3-----------------------8------------


Part 3

e-----3-/-10-----7--------5-----3---3-5-5---5---3---5---7---2-2-3-------
B-----3-/-8------8---8.---8-----3---3-3-3---3---3-------0---3-3-3-3p0---
G---0----------7---7----------0-----------0---0---0---0---0-------------
D---------0---------------0---------------------------------------------
A---------------------------------------------------3-------3---3-0-----
E-0-------------------------------0-3-----------------------------------


e-----3-/-10-----7--------5-----3---3-5-5---5---3---5---7---2-2-3-------
B-----3-/-8------8---8.---8-----3---3-3-3---3---3-------0---3-3-3-------
G---0----------7---7----------0-----------0---0---0---0---0-----0-------
D---------0---------------0-------------------------------------x-------
A---------------------------------------------------3-------3---3-------
E-0-------------------------------0-3-----------------------------------


Part 4

e---3-3-3-------3-3---3-------------------------------------------------
B---3-3-3-------3-3---3-------------------------------------------------
G---0-0-0-------0-0---0-------------------------------------------------
D---x-x-x-------x-x---x-------------------------------------------------
A---3-3-3-------3-3---3-------------------------------------------------
E-----------------------------------------------------------------------


Heeeeeeeey

  Em7           Dsus4             G       G/B   Cadd9               4x
e-3---3-3-3-3-3-3---3-3-3-3---3---3---3-3-3-3-3-3---3-3-3-3---3---------
B-3---3-3-3-3-3-3---3-3-3-3---3---3---3-3-3-3-3-3---3-3-3-3---3---------
G-0---0-0-0-0-0-2---2-2-2-2---2---0---0-0-0-0-0-0---0-0-0-0---0---------
D-2---2-2-2-2-2-0---0-0-0-0---0---0---0-0-x-x-x-2---2-2-2-2---2---------
A-2---2-2-2-2-2-------------------x---x-x-2-2-2-3---3-3-3-3---3---------
E-0---0-0-0-0-0-------------------3---3-3-------------------------------


Part 5                                                              4x

e-----3-3-10-10-10-7-7-7-x-5-5-0-3-x-3-5-5-5-5-5-3-3-3-3-5-5-2-2-3-3----
B-----3-3-8--8--8--8-8-8-x-8-8-0-3-x-3-3-3-3-3-3-3-3-0-0-0-0-3-3-3-3----
G-----0-0-7--7--7--7-7-7-x-7-7-0-0-x-0-0-0-0-0-0-0-0-0-0-0-0-0-0-0-0----
D-2---2-2-0--0--0--0-0-0-x-0-0-0-0-x-0-0-0-0-0-0-0-0-x-x-x-x-x-x-x-x----
A-2---2-2-0--0--0------------------x-x-x-x-x-x-x-x-x-3-3-3-3-3-3-3-3----
E-0---0-0----------------------------3-3-3-3-3-3-3-3--------------------


Part 6 ~ Intro

e---3p2-------3p2-------3p2-------3p2-----------------------------------
B-3-----3---3-----3---3-----3---3-----3---------------------------------
G---------0---------0---------0---------0-------------------------------
D-----------------------------------------------------------------------
A-----------------------------------------------------------------------
E-----------------------------------------------------------------------


Part 7 ~ Part 1

e---------------------0-------------------------------------------------
B-----3---3---0h1-3-------3---0h1-3---1---0-------------1---------------
G-----0-------------0---0---0-------0---0-----2-2-----------4-----------
D---2---2---2-----0-----------------------------------0---------0-------
A-3---------------------------------------2-----3-----------------------
E---------------------------------0-------------------------------------


e---------------------0-------------------------------------------------
B-----3---3---0h1-3-------3---0h1-3---1---0-----------------------------
G-----0-------------0---0---0-------0---0-----2-2p0-----0---0---0-------
D---2---2---2-----0-----------------------------------------------------
A-0---------------------------------------2-----3-----3---3---3---------
E---------------------------------0-------------------------------------


e---------------------0-------------------------------------------------
B-----3---3---0h1-3-------3---0h1-3---1---0-------------1---------------
G-----0-------------0---0---0-------0---0-----2-2-----------4-----------
D---2---2---2-----0-----------------------------------0---------0-------
A-3---------------------------------------2-----3-----------------------
E---------------------------------0-------------------------------------


e---------------------0-------------------------------------------------
B-----3---3---0h1-3-------3---0h1-3---1---0-----------------------------
G-----0-------------0---0---0-------0---0-----2-2p0-----0---0---0-------
D---2---2---2-----0-----------------------------------------------------
A-0---------------------------------------2-----3-----3---3---3---------
E---------------------------------0-------------------------------------



then all the other parts again (Part 2 3 4 and 5)


The End

e---3p2-------3p2-----5---3---5---7---2---3~----------------------------
B-3-----3---3-----3-----0---0---0---0---0-------------------------------
G---------0---------0---------------------------------------------------
D-----------------------------------------------------------------------
A-----------------------------------------------------------------------
E-----------------------------------------------------------------------