20131106

BEETHOVEN FÜR ELISE TAB (GUITAR COVER BY LAI YOUTTITHAM)

Lai Youttitham plays a cool guitar cover of Beethoven's Für Elise with his Ibanez guitar. Also an acoustic part between 1:40 and 2:20 (and a VOX DA5 in the background)
Be careful while learning because sometimes the video just doesn't match the audio line.
See the TAB under the video.


BEETHOVEN FÜR ELISE TAB

PDF >>

Part 1

e-12-11-12-11-12-7-10-8-7------------5-7---------7-8--------------------
B-------------------------10-------5-----------9------------------------
G--------------------------------5-----------9-----------9--------------
D------------------------------7-----------6-----------7----------------
A----------------------------7-----------7-----------7------------------
E-----------------------------------------------------------------------
                             x x x x     x x x       x x x


e-12-11-12-11-12-7-10-8-7-----------5-7-------8-7-----------------------
B---------------------------------5---------------10--------------------
G-------------------------------5-----------9------------9--------------
D-------------------------7---7-----------6------------7----------------
A---------------------------7-----------7------------7------------------
E-----------------------------------------------------------------------
                          x x x x x     x x x        x x x


e-12-11-12-11-12-7-10-8-7----------------5-7(8)(7)~------4-7/8~---------
B-------------------------8/10~---------5-------------/5----------------
G--------------------------------------5--------------------------------
D-----------------------------------------------------------------------
A-----------------------------------------------------------------------
E-----------------------------------------------------------------------
                                       xxx



e----12-11-12-11-12-7-10-8-7------------5-7-------8-7-------------------
B----------------------------10-------5---------------10----------------
G-/9--------------------------------5-----------9-----------------------
D---------------------------------7-----------6------------7------------
A-------------------------------7-----------7------------7--------------
E-----------------------------------------------------------------------
                                x x x x     x x x        x x


e-7-8-10/12----------13-12-10---------12-10-8-------10-8-7-------12-12--
B-----------------------------------------------------------------------
G-----------------12---------------10-------------9----------9-9--------
D--------------10----------------9--------------7-----------------------
A-----------10----------------10--------------7------------7------------
E-----------------------------------------------------------------------
            x  x  x           x  x x          x x x        x


Part 2

  T
e-24p11h12p11h12p11h12p11h12p11h12p11h12p11-12\7-10-8-------------17-19~
B-----------------------------------------------------10-----13/17------
G----------------------------------------------------------14-----------
D--------------------------------------------------------14-------------
A-----------------------------------------------------------------------
E-----------------------------------------------------------------------
                                                           x

e-----16-19/20-------------------------------------5-7-------8-7--------
B-/17--------------------------------------------5---------------10~----
G----------------------------------------------5-----------9------------
D--------------------------------------------7-----------6--------------
A-----------------------7-6-7-6-7----------7-----------7----------------
E----------------17-\\\-----------7-10-8-5------------------------------
                        x x x x   x x  x   x x x x     x x


e-/7-8-10/12~------12(13)(12)-10~------10/12\10-8~------8(10)(8)-7------
B-----------------------------------------------------------------------
G--------------------------------------------------------------------9-9
D-----------------------------------------------------------------------
A------------------------------------------------------------------7----
E-----------------------------------------------------------------------
                                                                   x

        T
e-12-12-24p11h12p11-12p11h12p11-12p11h12p11h12p11-12\-7-10-8------------
B------------------------------------------------------------10---------
G-----------------------------------------------------------------------
D-----------------------------------------------------------------------
A-----------------------------------------------------------------------
E-----------------------------------------------------------------------


e----------5-7----------7-8---------------------------------------------
B--------5------------9-------------------------------------------------
G------5------------9-----------9---------------------------------------
D----7------------6-----------7-----------------------------------------
A-/7-----------/7-----------7-------------------------------------------
E-----------------------------------------------------------------------
     x x x                  x x x


e-12-11-12-11-12-7-10-8--------------12-17-(19)~~~------19(20)(19)-17~-\
B-----------------------10--------13------------------------------------
G------------------------------14---------------------------------------
D--------------------------/14------------------------------------------
A-----------------------------------------------------------------------
E-----------------------------------------------------------------------
                               x

Part 3

e-8-8-8-8------/13---12-12---10-----18---17-17--15--13--12--------------
B-----------------------------------------------------------15--13------
G-------------------------------------------------------------------15--
D-8-7-5-----------------------------------------------------------------
A-------8---------------------------------------------------------------
E-----------------------------------------------------------------------


e-----------------------------------------------------------------------
B--------------------------13-------------15-16-17------17-18-----------
G-14.-14.---15p14p12h14h15---------------------------------------17~----
D-------------------------------------------------------------19--------
A-----------------------------------------------------------------------
E-----------------------------------------------------------------------


e---------------------------------------------------20p19p17------------
B------------20----20----20----20----20----20-17-20----------20-18-17---
G-19---16-17----------------16----17----19---------------------------19-
D---------------17----19------------------------------------------------
A-----------------------------------------------------------------------
E-----------------------------------------------------------------------


e----------------------------------------------------20p19p17-----------
B-20p18-------20----20----20----20----------20-17h20---------20p18-17---
G-------19-17----------------16----17-17-19--------------------------19-
D----------------17----19-----------------------------------------------
A-----------------------------------------------------------------------
E-----------------------------------------------------------------------


e-----------------------------------------------------------------------
B-20p18----17h18p17\16h17----17p16h17----17p16h17.----------------------
G-------19----------------16----------16--------------------------------
D-----------------------------------------------------------------------
A-----------------------------------------------------------------------
E-----------------------------------------------------------------------



Part 4  (acoustic)

e-----------------------------------------------------------5-7---------
B----5-4-5.-------5-4-5-4-5-4-5-4-5-4-5-4-5---------------5-------------
G-/4-----------/4---------------------------4-7-5-------5---------------
D-------------------------------------------------7---7-----------------
A---------------------------------------------------7-------------------
E-----------------------------------------------------------------------


e---------7-8-------12-11-12-11-12-7-10-8------------5-7-------8-7------
B-------9---------------------------------10-------5---------------10---
G-----------------9------------------------------5-----------9----------
D---6-9---------7------------------------------7-----------6-----------7
A-7-----------7------------------------------7-----------7-----------7--
E-----------------------------------------------------------------------


e-7-8-10-12----------13-12-10---------12-10-8-------10-8-7--------------
B-----------------------------------------------------------------------
G-----------------12---------------10-------------9--------------9-8-9-8
D--------------10----------------9--------------7-----------------------
A-----------10----------------10--------------7--------------7-7--------
E----------------------------------------------------------0------------


e-12-----------------------------------------5-7---------7-8------------
B----------------------------0-------------5-----------9----------------
G----8-9-8-9-8-9-8-9-8-9-8-9---7-5-------5-----------9-----------9------
D----------------------------------7---7-----------6-----------7--------
A------------------------------------7-----------7-----------7----------
E-----------------------------------------------------------------------


e-12-11-12-11-12-7-10-8----------5-7-------8-7--------------------------
B------------------------------5---------------10-----------------------
G----------------------------5-----------9------------------------------
D--------------------------7-----------6--------------------------------
A-----------------------/7----------/7----------------------------------
E-----------------------------------------------------------------------


Part 5

e-----------------------------------------12.-13.-13.-13.-13.-13.-13.-13
B-14.-14.-14.-14.-14.-14.-15.-15.-15.-15.-14.-15.-15.-15.-15.-15.-15.-15
G-15.-15.-15.-15.-15.-15.-14.-14.-14.-14.-------------------------------
D-----------------------------------------------------------------------
A-----------------------------------------------------------------------
E-----------------------------------------------------------------------


e-------------------------13---(15)(13)---12----------------------------
B-14.-14.-14.-14.-14.-14.-15---(17)(15)---13-15-13----------------------
G-15.-15.-15.-15.-15.-15.--------------------16-14----------------------
D-----------------------------------------------------------------------
A-----------------------------------------------------------------------
E-----------------------------------------------------------------------


e-----------------------------------------------------------------------
B------------13---12(13)(12)------------14~--------(15)(14)(15)---------
G-/14---14---------------------14~--------------------------------------
D---------------------------------------------------- TREMOLO ----------
A-----------------------------------------------------------------------
E-----------------------------------------------------------------------


e-----------------------------------------------------------------------
B-17/18-18~-----------(18)(17)(18)-18~-----------13(15)(13)(15)---------
G-----------------------------------------------------------------------
D---------------------- TREMOLO ----------------------------------------
A-----------------------------------------------------------------------
E-----------------------------------------------------------------------


e--------------------------8---7-------7----8.--------------------------
B-(15)(13)---11~----------10---9-------9---10.-8(10)---(8)--------------
G---------------------------------------------------------9-7(9)(7)-----
D-----------------------------------------------------------------------
A-------------------------------------------------------------------8-7~
E-----------------------------------------------------------------------



Part 6

e--------------------------------12-------------------17-20-24-22-20-19-
B-----------------------------13----15-13----------17-------------------
G---------5-9-7-5--------9-14-------------15----17----------------------
D-------7---------9-7-10---------------------19-------------------------
A---3-7-----------------------------------------------------------------
E-5---------------------------------------------------------------------
  x x x x x x x x x x x  x


e-18-17-----------------------------------------------------------------
B-------21-20-19-18-17--------------------------------------------------
G----------------------20-19-18-17--------------------------------------
D----------------------------------21-20-19-18-17-----------------------
A-------------------------------------------------21-20-----------------
E-----------------------------------------------------------------------



Part 7

e--------------------------------------17-19~------------16-19-20~------
B-----------------------------------17----------------17----------------
G-------------------------------/17-------------------------------------
D-----------------------------------------------------------------------
A-19-p18-19--14-17--15-12~----------------------------------------------
E-----------------------------------------------------------------------


e-/12-11-12-11-12-7-10-8-7------------5-7-------8-7---------------------
B--------------------------10-------5---------------10~-----------------
G---------------------------------5-----------9-------------------------
D-------------------------------7-----------6---------------------------
A-----------------------------7-----------7-----------------------------
E-----------------------------------------------------------------------
                              x x x x     x x x       


e-7-8-10/12----------13-12-10---------12\10-8-------8/10\8-7------12-12-
B-----------------------------------------------------------------------
G-----------------12---------------10-------------9------------9-9------
D--------------10----------------9--------------7-----------------------
A-----------10----------------10--------------7--------------7----------
E-----------------------------------------------------------------------
            x  x  x           x  x x          x x x          x

  T
e-24p11h12p11h12p11h12p11h12p11h12p11h12p11h12\7/10\8------------5h7----
B-----------------------------------------------------10-------5--------
G------------------------------------------------------------5----------
D----------------------------------------------------------7------------
A-------------------------------------------------------/7--------------
E-----------------------------------------------------------------------
                                                           x x x

e----------7h8------8-12p11h12p11h12-7-10-8------------5-7~~~-----------
B--------9-------10-------------------------10~------5------------------
G------9-------9-----------------------------------5--------------------
D----6------------------------------------------------------------------
A-/7--------------------------------------------------------------------
E-----------------------------------------------------------------------


e------------------9h10p9-----------------------------------------------
B-2-------------------------10------------------------------------------
G-2----------------------------9\7\6(7)(6)~-----------------------------
D-2---------------------------------------------------------------------
A-----------------------------------------------------------------------
E-----------------------------------------------------------------------


e-----------------------------------------------------------------------
B---------------------------------------------------8-p-7---------------
G-6h7p6-----------------------------------------------------------------
D---------7---------------------------------------7---------------------
A-----------7\5\4(5)(4)-------------------------------------------------
E-------------------------5---------------------------------------------