20131115

BEN E. KING STAND BY ME TAB (FINGERSTYLE COVER BY KCHAN9999)


Kchan9999 plays a nice fingerstyle guitar cover of Ben E. King - Stand By Me.
Download the Guitar Pro 6, GP5 and PDF files below.
Use Dropped D tuning.


BEN E. KING STAND BY ME FINGERSTYLE TAB

GP5 + GP6 + PDF >> 

Part 1

e-----------------------------------------------------------------------
B-----------------------------------------------------------------------
G-----------------------------------------------------------------------
D-----------------------------------------------------------------------
A-0------------------0------------------0---------------------0---------
D---11-12---x-12---\---11-12---x-12-\-----12-11-9---x-9---\-4---9---x-9\


e-----------------------------------------------------------------------
B-----------------------------------------------------------------------
G-----------------------------------------------------------------------
D----------------------------------------------------------------0------
A---2-0-----------------------------0------------------0-4-5---x--------
D-4-----5---x-5-----4-5-7---x-7-------11-12---x-12---\------------------


Part 2

e-----5-7---------------5-------------------------2---0-----------------
B-5/7---------------5h7---7-------------------------------3-------------
G-----------------------------------------------------------------------
D---------0---x-0-----------0---x-0-----0-------------------------------
A-------------------------------------0---4-2---x-2---------2---x-2-----
D-----------------------------------------------------------------------



e---0h2-------------2h3-2---p0-------0----------------------------------
B-3-----3---------3----------------------3-------3----------------------
G-----------------------------------------------------------------------
D------------------------------------------0---x-0---------------0------
A---0---------------------0----x-0---------------------0-4-5---x--------
D-------5---x-5---------------------------------------------------------





DOWNLOAD THIS TAB IN GUITAR PRO



  • click 'Free Download'
  • add your e-mail address
  • you will get an e-mail with your download links (in a few seconds)
  • download the Guitar Pro 6 tab + GP5 + PDF for free
  • and that's all ...


Guitar Pro: a complete workshop for guitarists at an affordable price