20131126

CLARIS CONNECT TAB (ACOUSTIC GUITAR COVER BY OSAMURAI SAN)


ClariS - Connect on guitar played by Osamurai San. Mahou Shoujo Madoka Magika.
Awesome right hand and left hand technique. 
See the TAB under the video.



CLARIS CONNECT TAB

PDF >>

Attention Osamurai San plays the song in Eb tuning with CAPO on the 2nd
You can also play it with standard tuning BUT with CAPO on the 1st
It will sound exactly the same.
A '-0-' means the open string in the TAB wherever you put the CAPO.

Part 1

e-----------------------------------------------------------------------
B-1p0-1-3---------------------------------------------------------------
G-----------------------------------------------------------------------
D-----------------------------------------------------------------------
A-----------------------------------------------------------------------
E-----------------------------------------------------------------------


e-0---------0-----------3-----------------------------------------------
B-------1h3-----1-3h5---------3---3-----0h1h3---3-3p1p0h1---0h1h3-------
G---0h2-------2-------4-----0---------0-----------2-------0-------------
D-3---------------5---------------2-------------------------------------
A-----------------------------------------------------------------------
E-----------------------------------------------------------------------


e-0---------0-----------3-----------------------0-----------------------
B-------1h3-----1-3h5---------3---3-----3---2h3-2-----------------------
G---0h2-------2-------4-----0---------0---------------------------------
D-3---------------5-----------------2-----------------------------------
A---------------------------------0-------------------------------------
E-----------------------------------------------------------------------



Part 2

e-0---0---0-0-0-3---3-3-3-5-5-5-5-3---3---0-0-0-0---0-0-0-0-0-0-0-------
B-1---1---1-1-1-3---3-3-3-3-3-3-3-0---0---0-0-0-1---1-1-1-1-1-1-1-------
G-2---2---2-2-2-0---0-0-0-0-0-0-0-0---0---0-0-0-2---2-2-2-2-2-2-2-------
D-3---3---3-3-3-0---0-0-0-0-0-0-0-0---0---0-0-0-2---2-2-2-2-2-2-2-------
A-x---x---x-x-x-x---x-x-x-x-x-x-x-2---2---2-2-2-0---0-0-0-0-0-0-0-------
E-1---1---1-1-1-3---3-3-3-3-3-3-3-0---0---0-0-0-------------------------

 
e-0---0-0-0-0-0-0---0-0-0-5-5-5-5-3---3-3---3-3-3-0---0-0---0-0-0-------
B-1---1-1-1-1-1-3---3-3-3-3-3-3-3-0---0-0---0-0-0-3---3-2---2-2-2-------
G-2---2-2-2-2-2-0---0-0-0-0-0-0-0-0---0-0---0-0-0-0---0-0---0-0-0-------
D-2---2-2-2-2-2-3---3-3-3-3-3-3-3-0---0-0---0-0-0-2---2-2---2-2-2-------
A-x---x-x-x-x-x-x---x-x-x-x-x-x-x-2---2-2---2-2-2-0---0-0---0-0-0-------
E-2---2-2-2-2-2-1---1-1-1-1-1-1-1-3---3-3---3-3-3-----------------------



Part 3

e-0---0-----------------------------------------------------------------
B-1---1---1-0---1-----0---1---3.--0---0---0-----------------------------
G-2---2---2-0---2-----0---2---2.--0---0-----2---0-----------0---2-------
D-3---3-----------------------------------------------------------------
A-x---x-----------------------------------------------------------------
E-1---1---1-1-1-1-1-1-1-1-1-1-1-1-3-3-3-3-3-3-3-3-3-3-3-3-3-3-3-3-------


e---------------1---0-0-------------------------------------------------
B-0---------0-----------3---0---3-1-------3-------1-------0-------------
G-----0-2---------------------------------------------------------------
D-----------------------------------------------------------------------
A---------------------------------0-0-0-0-0-0-0-0-----------------------
E-0-0-0-0-0-0-0-0-0-0-0-0-0-0-0-0-----------------3-3-3-3-3-3-3---------


e-0---0-----------------------------------------------------3.--0-------
B-1---1---1-0---1-----0---1---3.--0---0---0-----------------0.--0-------
G-2---2---2-0---2-----0---2---2.--0---0---0-2---0-----------------------
D-3---3---3-3---3-----3---3---3.--0---0---------------------------------
A-x---x-----------------------------------------------------------------
E-1---1-1-1-1-1-1-1-1-1-1-1-1-1-1-3-3-3-3-3-3-3-3-3-3-3-3-3-3-3-3-------


e-----------------------------3.--0-------------------------------------
B-3---1---3-1---3-------3-----0.--1-----3-----1---------------1h3-------
G-------------------4-5---0-----------------------0-----------0---------
D-------------------------------------------------------2---------------
A---------------------------------0-0-0-0-0-0-0-0-0-0-0-0-0-0-0-0-------
E-0-0-0-0-0-0-0-0-4-4-4-4-4-4-4-0---------------------------------------



Part 4

e-0-------------------------------------0-----0---------------0h1-------
B-1-----------3p1---------1---3---------1-----1---------1-----0---------
G-2-----2-----2---------2---------2-----------2---------2---------------
D-3---3-----3---------3-----------3-----------3-------3-----3-----------
A-x-----------------------------------0---------------------------------
E-1---------------1---------------1---------------1---------------------


e-3-----1-----0-------------------------0---------------0---------------
B-0-----0-----0-----3-----0---3---1---------1-----------1-----1h3-------
G-0-----0-----0-----0-----0---0---0-----------0-0-------------0---------
D-----------------------0-------------2---------------2-----2-----------
A-----2---------------------------0---------------0---------------------
E-0---------------0-----------------------------------------------------



e-0-------------------------------3-----3-----------0-------------------
B-1-----------3p1---------1---1.--1-----1---0h1-----1-------1-----------
G-------------2-----------2---2.------------0h2-----2---2---2-----------
D---------0---------------0---0.------------3-------3-------0-----------
A---------------------------------------------------x-------------------
E-----2-------2-------2-------2.------1-----1-------1-------0-----------


e---------------------------0---0-1-----1---1-----0---------------------
B-3---1-3---1---1-3---1-3---0---0-1-----1---1-0---0-------1p0-1-3-------
G---------------------0-0---------2-----2---2-0---1-------0-------------
D-0-0-0-0-0-0-0-0-0---------------------3---3-0---0---------------------
A---------------------------------------x---x-x---2---------------------
E-------------------0-0-0-0-0-0-0-1---1-1---1-3---0---------------------



Part 5

e-0---x-0-0-0-x-0---0-x-3p0-0-x-0---x-0-0-0-x-0-0---x-0---0-------------
B-1---x-1-3-1-x-1-3-0-x-0-0-0-x-3---x-0-1-3-x-3-3p1p0-1---0h1-3---------
G-2---x-2-2-2-x-2-0-0-x-0-0-0-x-0---x-0-0-0-x-0-0---x-0---0-------------
D-3---x-3-3-3-x-3-0-0-x-0-0-0-x-0---x-0-0-0-x-2-2---x-2---2-------------
A-x---x-x---x-x---2-2-x-2-2-2-x-2---x-2-2-2-x-0-0---x-0---0-------------
E-1---x-1---1-x---3-3-x-3-3-3-x-0---x-0-0-0-x-------x-------------------


e-0---x-0-0-0-x-0---0-x-3p0-0-x-0---x-0-0-0-x-0---0-x-0-0---0-0---------
B-1---x-1-3-1-x-1-3-0-x-0-0-0-x-3---x-3-3-2h3-2---2-x-2-1p0-1-3---------
G-2---x-2-2-2-x-2-0-0-x-0-0-0-x-0---x-0-0-0-x-0---0-x-0-0---0-0---------
D-3---x-3-3-3-x-3-0-0-x-0-0-0-x-0---x-0-0-0-x-2---2-x-2-2---2-2---------
A-x---x-x---x-x---2-2-x-2-2-2-x-2---x-2-2-2-x-0---0-x-0-0---0-0---------
E-1---x-1---1-x---3-3-x-3-3-3-x-0---x-0-0-0-x-------x-------------------



e-0---x-0-0-0-x-0---0-x-3-x-0-x-0---x-0-0-0-x-0-3p1-x-0-0-0---x---------
B-1---x-1-3-1-x-0-3-0-x-0-x-0-x-3---x-0-1-3-x-0-0---x-1-1-0h1-1---------
G-2---x-2-2-2-x-0-0-0-x-0-x-0-x-0---x-0-0-0-x-0-0---x-0-0-0---x---------
D-3---x-3-3-3-x-0-0-0-x-0-x-0-x-0---x-0-0-0-x-0-2---x-2-2-2---x---------
A-x---x-x---x-x---2-2-x-2-x-2-x-2---x-2-2-2-x-0-0---x-0-0-0---x---------
E-1---x-1---1-x---3-3-x-3-x-3-x-0---x-0-0-0-x-------x---------x---------


e-0---x-0-0-0-x-0-1--p0-x-3-1-x-0-0---x-0-0-0-0-0-3---------------------
B-1---x-1-1-1-x-0-0-----x-0-0-x-0-1---x-1-1-1-1-1-3---------------------
G-2---x-2-2-2-x-0-0-----x-0-0-x-0-2---x-2-2-2-2-2-0-------<12>----------
D-0---x-0-0-0-x-0-0-----x-0-0-x-0-3---x-3-3-3-3-3-0-------<12>----------
A-----x-------x---2-----x-2-2-x---x---x-x-x-x-x-x-x---------------------
E-----x-------x---0-----x-0-0-x---1---x-1-1-1-1-1-3---------------------



Part 6

e-0-0.----x-x-x-0---0-0---0---0-0---------x-x-x-3---3-3---x-0-0-0-------
B-1-1.----x-x-x-0---0-0---0---0-0---------x-x-x-0---0-0---x-0-0-0-------
G-2-2.----x-x-x-0---0-0---0---0-0-2-2.----x-x-x-0---0-0---x-0-0-0-------
D-2-2.----x-x-x-5---5-5---5---5-5-3-3.----x-x-x-0---0-0---x-2-2-2-------
A-0-0.----x-x-x-5---5-5---5---5-5-3-3.----x-x-x-2---2-2---x-2-2-2-------
E---------x-x-x-3---3-3---3---3-3-1-1.----x-x-x-3---3-3---x-0-0-0-------


e-0-0.----x-x-x-3---3-3---x-0-0-0-1-1.----x-x-x-3---3-0-0-0-0-0-0-------
B-1-1.----x-x-x-3---3-3---x-0-0-0-1-1.----x-x-x-3---3-0-0-0-0-0-0-------
G-2-2.----x-x-x-0---0-0---x-0-0-0-2-2.----x-x-x-0---0-0-0-1-1-1-1-------
D-2-2.----x-x-x-0---0-0---x-0-0-0-3-3.----x-x-x-0---0-0-0-2-2-2-2-------
A-0-0.----x-x-x-2---2-2---x-0-0-0-3-3.----x-x-x-2---2-0-0-2-2-2-2-------
E---------x-x-x-----------x-0-0-0-1-1.----x-x-x-3---3-0-0-0-0-0-0-------



Part 7 ~ Part 2

e-0---0---0-0-0-3---3-3-3-5-5-5-5-3---3---0-0-0-0---0-0-0-0-0-0-0-------
B-1---1---1-1-1-3---3-3-3-3-3-3-3-0---0---0-0-0-1---1-1-1-1-1-1-1-------
G-2---2---2-2-2-0---0-0-0-0-0-0-0-0---0---0-0-0-2---2-2-2-2-2-2-2-------
D-3---3---3-3-3-0---0-0-0-0-0-0-0-0---0---0-0-0-2---2-2-2-2-2-2-2-------
A-x---x---x-x-x-x---x-x-x-x-x-x-x-2---2---2-2-2-0---0-0-0-0-0-0-0-------
E-1---1---1-1-1-3---3-3-3-3-3-3-3-0---0---0-0-0-------------------------

 
e-0---0-0-0-0-0-0---0-0-0-5-5-5-5-3---3-3---3-3-3-0---0-0---0-x-0---0-x-
B-1---1-1-1-1-1-3---3-3-3-3-3-3-3-0---0-0---0-0-0-3---3-2---2-x-0---0-x-
G-2---2-2-2-2-2-0---0-0-0-0-0-0-0-0---0-0---0-0-0-0---0-0---0-x-2---2-x-
D-2---2-2-2-2-2-3---3-3-3-3-3-3-3-0---0-0---0-0-0-2---2-2---2-x-2---2-x-
A-x---x-x-x-x-x-x---x-x-x-x-x-x-x-2---2-2---2-2-2-0---0-0---0-x-2---2-x-
E-2---2-2-2-2-2-1---1-1-1-1-1-1-1-3---3-3---3-3-3---------------0---0-x-


e-0---0-0-0-------------------------------------------------------------
B-0---0-0-0-------------------------------------------------------------
G-2---2-2-2-------------------------------------------------------------
D-1---1-1-1-------------------------------------------------------------
A-2---2-2-2-------------------------------------------------------------
E-0---0-0-0-------------------------------------------------------------



Part 8

e-0-----------------0-------------------------0---------------0-0-------
B-0---3-0-3---0-3.------3---2---------3-0-3-----2---0---------0-0-------
G-0---0-0-0---0-0.------2---2---------0-0-0-----------2-------2-2-------
D-0-----------------------------------------------------------0-0-------
A-2-----------------------------------------------------------x-x-------
E-0---0-0-0-0-0-0-2-2-2-2-2-2-2-2-3-3-3-3-3-3-3-3-2-2-2-2-2-2-2-2-------


e-0---0---------0---0-------------------------------------2---0-0-------
B-0---3-0-3---0-3---0---3---2-----3-------3-------3-------3---0-0-------
G-0---0-0-0---0-0---2---2---2-----0-------0-------0-------0---0-0-------
D-0---0---------0-------------------------0-------0-------0---0-0-------
A-2---2---------2-------------------------2-------2-------2---0-0-------
E-0-0-0-0-0-0-0-0-2-2-2-2-2-2-2-2-3---3---3---3---3---3---3---0-0-------


e-2-----2---2-2---0-----------------------------------------------------
B-2-----2---2-2---2-----------------------------------------------------
G-3-----3---3-3---3-----------------------------------------------------
D-4---4-4---4-4---4-----------------------------------------------------
A-4---4-4---4-4---4-----------------------------------------------------
E-2---2-2---2-2---2-----------------------------------------------------



Part 9

e-------0---------------------------------------------------------------
B-3p2-3-----------------------------------------------------------------
G-----------------------------------------------------------------------
D-----------------------------------------------------------------------
A-----------------------------------------------------------------------
E-----------------------------------------------------------------------


e-2-------0-2.------0-2-x-5-x-2-x---0---x-0---0-x-0-0---x-0-0---0-------
B-------3---------3-0-0-x-0-x-0-x---2---x-2-3-2-x-3-3p2-x-3-2h3-0-------
G-----------------0-0-0-x-0-x-0-x---2---x-2-2---x-2-2---x-2-2---0-------
D-------------------0-0-x-0-x-0-x---2---x-2-----x-0-0---x-0-0---0-------
A-------------------0-0-x-0-x-0-x---x---x-x-----x-2-2---x-2-2-----------
E-----------------------x---x---x---2---x-2-----x-------x---------------


e-2-----x---0-2-x---0-2-x-5p0-0-0-0-2-----2-2-0---2---2-x-0-0---0-0-----
B-0-----x-3-0-0-x-3-0-0-x-0---0-0-0-5-----5-4-----0---0-x-0-3p2-3-0-----
G-0-----x-0-0-0-x-0-0-0-x-0---0-0-0-2---x-2-2---x-2---2-x-0-0---0-0-----
D-0-----x-0-0-0-x-0-0-0-x-0---0-0-0-4---x-4-4---x-1---1-x-0-0---0-0-----
A-x-----x-x---x-x-0-0-0-x-0---0-0-0-2---x-2-2---x-2---2-x-0-0---0-0-----
E-3-----x-----3-x-------x---------------x-------x-------x---------------



e-2-----x---0-2-x---0-2-x-5-x-0-x---0---x-0---0-x-0-5-3p2-3-x-----0-----
B-0-----x-3-0-0-x-3-0-0-x-0-x-0-x---2---x-2-3-2-x-0-2-2-x-2-x-2h3-------
G-0-----x-0-0-0-x-0-0-0-x-0-x-0-x---2---x-2-2---x-0-2-2-x-2-x-----------
D-0-----x-0-0-0-x-0-0-0-x-0-x-0-x---2---x-2-----x-0-2-2-x-2-x-----------
A-x-----x-x---x-x-0-0-0-x-0-x-0-x---x---x-x-----x-0-2-2-x-2-x-----------
E-3-----x-----3-x-------x---x---x---2---x-2-----x-------x---x-----------


e-0---x-0-2-2-x-0-3--p2-0-0-3-x-2-2---x-2-2-2-2-2-0-------2/5-----------
B-3---x-3-3-3-x-0-0---x---0-0-x-0-0---x-0-0-0-0-0-2-------2/5-----------
G-0---x-0-0-0-x-0-2---x---2-2-x-0-0---x-0-0-0-0-0-2---------------------
D-0---x-0-0-0-x-0-0---x---0-0-x-0-0---x-0-0-0-0-0-2---------------------
A-2---x-2-2-2-x-0-x---x---x-x-x-x-x---x-x-x-x-x-x-0---------------------
E-0---x-0-0-0-x-0-2---x---2-2-x-3-3---x-3-3-3-3-3-----------------------



Part 10

e-2---2---2-2-2-0---0-0-0-7-7-7-0-5---5---2-2-2-2---2-2-2-5-5-0---------
B-3---3---3-3-3-0---0-0-0-0-0-0-0-2---2---2-2-2-3---3-3-3-3-3-0---------
G-0---0---0-0-0-6---6-6-6-6-6-6-0-2---2---2-2-2-2---2-2-2-2-2-0---------
D-0---0---0-0-0-7---7-7-7-7-7-7-0-2---2---2-2-2-4---4-4-4-4-4-0---------
A-x---x---x-x-x-0---0-0-0-0-0-0---4---4---4-4-4-2---2-2-2-2-2-0---------
E-3---3---3-3-3-x---x-x-x-x-x-x---2---2---2-2-2-------------------------


e-2---2---2-2-2-0---0-0-0-7-7-0-0-5---5-5---5-5-5---5-5-5-5-5-0-0-------
B-3---3---3-3-3-0---0-0-0-0-0-0-0-0---0-0---0-0-0---0-0-0-0-0-0-0-------
G-4---4---4-4-4-0---0-0-0-0-0-0-0-0---0-0---0-0-0---0-0-0-0-0-0-0-------
D-4---4---4-4-4-0---0-0-0-0-0-0-0-0---0-0---0-0-0---0-0-0-0-0-0-0-------
A-x---x---x-x-x-x---x-x-x-x-x-0-0-2---2-x---x-x-2---2-2-2-2-2-0-0-------
E-4---4---4-4-4-3---3-3-3-3-3-0-0-------2---2-2-3---3-3-3-3-3-0-0-------



e-3---x-2---2-x-3---3-3-3-3-3-3-3.--------------0-----------------------
B-3---x-3---3-x-3---3-3-3-3-3-3-3.--------------3-----------------------
G-0---x-2---2-x-0---0-0-0-0-0-0-0.--------------2-----------------------
D-0---x-0---0-x-0---0-0-0-0-0-0-0.--------------0-----------------------
A-2---x-x---x-x-2---2-2-2-2-2-2-2.--------------------------------------
E-0---x-2---2-x-3---3-3-3-3-3-3-3.--------------------------------------