20131110

GUITAR BOOGIE TAB (ACOUSTIC AND BASS COVER BY DAVIE504)


Davie504 plays a cool cover of Guitar Boogie with his Gretsch acoustic guitar and with his Fender Jazz Bass. Brilliant guitar boogie solo by 1:34.
See the TAB under the video.


GUITAR BOOGIE TAB

PDF >>

Part 1

e-----------------------------------------------------------------------
B-----------------------------------------------------------------------
G-----------------------------------------------------------------------
D-----------------------------------------------------------------------
A-2---2-2---2-2---2-2---2-2---2-2---2-2---2-2---------------------------
E-0---------------------------------------------------------------------


e-----------------------------------------------------------------------
B-----------------------------------------------------------------------
G-----------------------------------------------------------------------
D-----------------------------------------------------------------------
A-2---2-2---2-2---2-2---2-2---2-2---2-2-///-----------------------------
E-0-------------------------------------------9-\\\---------------------


Part 2

e-----------------------------------------------------------------------
B-----------------------------------------------------------------------
G-----------------------------------------------------------------------
D-------------------------2---2-----------------------------------------
A-------------2---2-4---x-------4---4-2---x-----2-----------------------
E-0---0-3---4-------------------------------3h4-------------------------



e-----------------------------------------------------------------------
B-----------------------------------------------------------------------
G-----------------------------------------------------------------------
D-----------------------------------------------------------------------
A-------------2---2-4---2-4/5---5-4---4-2---x-----2---------------------
E-0---0-3---4---------------------------------3h4-----------------------


e-----------------------------------------------------------------------
B-----------------------------------------------------------------------
G-------------------------2---2-----------------------------------------
D-------------2---2-4---x-------4---4-2---x-----------------------------
A-0---0-3---4-----------------------------------2-----------------------
E-------------------------------------------3h4-------------------------


e-----------------------------------------------------------------------
B-----------------------------------------------------------------------
G-----------------------------------------------------------------------
D-------------------------2---2-----------------------------------------
A-------------2---2-4---x-------4---4-2---x-----2-----------------------
E-0---0-3---4-------------------------------3h4-------------------------


e-----------------------------------------------------------------------
B-----------------------------------------------------------------------
G-----------------------------------------------------------------------
D-----------------------------------------------------------------------
A-2---2-4---x-5---5-4---x-2---2-------------2-----2---------------------
E-------------------------------5.----3/4-----3h4-----------------------


Part 3

e-----------------------------------------------------------------------
B-----------------------------------------------------------------------
G-----------------------------------------------------------------------
D-------------------------2---2-----------------------------------------
A-------------2---2-4---x-------4---x-2---2-----2-----------------------
E-0---0-3---4-------------------------------3h4-------------------------


e-----------------------------------------------------------------------
B-----------------------------------------------------------------------
G-----------------------------------------------------------------------
D-----------------------------------------------------------------------
A-------------2---2-4---2-4/5---5-4---4-2---x-----2---------------------
E-0---0-3---4---------------------------------3h4-----------------------


e-----------------------------------------------------------------------
B-----------------------------------------------------------------------
G-------------------------2---2-----------------------------------------
D-------------2---2-4---x-------4---4-2---x-----------------------------
A-0---0-3---4-----------------------------------2-----------------------
E-------------------------------------------3h4-------------------------


e-----------------------------------------------------------------------
B-----------------------------------------------------------------------
G-----------------------------------------------------------------------
D-------------------------2---2-----------------------------------------
A-------------2---2-4---x-------4---4-2---x-----2-----------------------
E-0---0-3---4-------------------------------3h4-------------------------


e-----------------------------------------------------------------------
B-----------------------------------------------------------------------
G-----------------------------------------------------------------------
D-----------------------------------------------------------------------
A-2---2-4---x-5---5-4---x-2---2-------------2-----2---------------------
E-------------------------------5.----3/4-----3h4-----------------------


e-----------------------------------------------------------------------
B-------------------------3-3.--2---------------------------------------
G-------------------------3-3.--2---------------------------------------
D---2---------2-----x---x-2-2.--1---------------------------------------
A---2---------2-----x---x-3-3.--2---------------------------------------
E-0-0---------0-----x---x-----------------------------------------------


Part 4

e-------x---------------------------------------------------------------
B-6/7---x-------------------7---x---------------------------------------
G-6/7---x-------------------7---x---------------------------------------
D-5/6---x-------------------6---x---------------------------------------
A-6/7---x-------------4-----7---x---------------------------------------
E---------4-----7-----------------4-----7-----4-------------------------


e-------x---------------------------------------------------------------
B-6/7---x-------------------7---x---------------------------------------
G-6/7---x-------------------7---x---------------------------------------
D-5/6---x-------------------6---x---------------------------------------
A-6/7---x-------------4-----7---x---------------------------------------
E---------4-----7-----------------4-----7-----6-------------------------


e-----------------------------------------------------------------------
B-----------------------------------------------------------------------
G-5/6---x-------------------7---7---------------------------------------
D-x-----x-------------4-----5---5-4-------------------------------------
A-x-----x-4-----7-----------------------7-----4-------------------------
E-4/5---x---------------------------------------------------------------


e-----------------------------------------------------------------------
B-6/7---7-------------------7.------------------------------------------
G-6/7---7-------------------7.----5.----6.----7-8-----------------------
D-5/6---6-------------------6.----x-----x-----x-x-----------------------
A-6/7---7-------------4-----7.----x-----x-----x-x-----------------------
E---------4-----7-----------------4.----5.----6-7-----------------------


e-----------------------------------------------------------------------
B-----------------------------------------------------------------------
G-----------------------------------------------------------------------
D-----------------------------------------------------------------------
A-------------------------------------------2-----2---------------------
E----x-9-----10-----9-----7-----5-----3/4-----3h4-----------------------


e-----------------------------------------------------------------------
B-------------------------3-3.--2---2-2---------------------------------
G-------------------------3-3.--2---2-2---------------------------------
D-------2-----2---2-x---x-2-2.--1---1-1---------------------------------
A-------2-----2---2-x---x-3-3.--2---2-2---------------------------------
E-0.----0-----0---0-x---x-----------------------------------------------


Part 5

e-----0.-----------------------0.---------------------------------------
B-----0.-----------------------0.---------------------------------------
G-----------------------------------------------------------------------
D-----------------------------------------------------------------------
A-----------------------------------------------------------------------
E-0------4---4-5---5-6---7-0------4---4-5---5-6---7---------------------


e-----0.-----------------------0.---------------------------------------
B-----0.-----------------------0.---------------------------------------
G-----------------------------------------------------------------------
D-----------------------------------------------------------------------
A-----------------------------------------------------------------------
E-0------4---4-5---5-6---7-0------4---4-5---5-6---7---------------------


e-----------------------------------------------------------------------
B-----------------------------------------------------------------------
G-----------------------------------------------------------------------
D-----------------------------------------------------------------------
A-------4---4-5---5-6---7-------4---4-5---5-6---7-----------------------
E-5---5-------------------5---5-----------------------------------------


e-----0.-----------------------0.---------------------------------------
B-----0.-----------------------0.---------------------------------------
G-----------------------------------------------------------------------
D-----------------------------------------------------------------------
A-----------------------------------------------------------------------
E-0------4---4-5---5-6---7-0------4---4-5---5-6---6---------------------


e-----------------------------------------------------------------------
B-----------------------------------------------------------------------
G-----------------------------------------------------------------------
D---------------7---7-9-\-----------------5---5-7-\---------------------
A-------7/9---9-------------------5/7---7-------------------------------
E-7---7---------------------5---5---------------------------------------


e-----------------------------------------------------------------------
B-------------------------x-8.----8.----8-------------------------------
G-------------------------x-8.----8.----8-------------------------------
D-------------3---3-5-\---x-7.----7.----7-------------------------------
A-------2---2-------------x-8.----8.----8-------------------------------
E-3---3-----------------------------------------------------------------


Part 6

e-----------------------------------------------------------------------
B-----------x-x-----x-----x-----<7>-------x-----x-----------------------
G-----------x-x-----x-----x-----<7>-------x-----x-----------------------
D-----------x-x-----x-----x-----<7>-------x-----x-----------------------
A-----------x-x-----x-----x---------------x-----x-----------------------
E-0---------------------------------------------------------------------


e-----------------------------------------------------------------------
B-x----------<12>-------------------------------------------------------
G-x----------<12>-------------------------------------------------------
D-x----------<12>-------------------------------------------------------
A-----------------------------------------------------------------------
E--------------------------------2-----3-----4--------------------------


e-----------------------------------------------------------------------
B-----------------------------------------------------------------------
G-------------------------2---2-----------------------------------------
D-------------2---2-4---x-------4---4-2---x-----------------------------
A-0---0-3---4-----------------------------------2-----------------------
E-------------------------------------------3h4-------------------------


e-----------------------------------------------------------------------
B-----------------------------------------------------------------------
G-----------------------------------------------------------------------
D-------------------------2---2-----------------------------------------
A-2-----------2---2-4---x-------4---4-2---x-----2-----------------------
E-0---0-3---4-------------------------------3h4-------------------------


e-----------------------------------------------------------------------
B-----------------------------------------------------------------------
G-----------------------------------------------------------------------
D-----------------------------------------------------------------------
A-2---2-4---x-5---5-4---x-2---2-------------2-----2---------------------
E-------------------------------5.----3/4-----3h4-----------------------


e-----------------------------------------------------------------------
B-------------------------3-3.--2---------------------------------------
G-------------------------3-3.--2---------------------------------------
D---2---------2-----x---x-2-2.--1---------------------------------------
A---2---------2-----x---x-3-3.--2---------------------------------------
E-0-0---------0-----x---x-----------------------------------------------


Part 7 (solo)

e-----------12.----12.----12.-------------------------------------------
B------12h14-----------------------------12---11------------------------
G-12h13---------------------------12---13-------14---12-13--------------
D------------------------------------------------------------14-11---14~
A-----------------------------------------------------------------------
E-----------------------------------------------------------------------


e----------------------12.----14(15)-----(15)-----(15)(14)-----12-------
B------12-14---13-12----------------------------------------------------
G-12h13-----------------------------------------------------------------
D-----------------------------------------------------------------------
A-----------------------------------------------------------------------
E-----------------------------------------------------------------------


e------12-----12-----12-----12-----12-----12-----12-----12.---12-----12.
B-13h14--13h14--13h14--13h14--13h14--13h14--13h14--13h14--------14------
G-----------------------------------------------------------------------
D-----------------------------------------------------------------------
A-----------------------------------------------------------------------
E-----------------------------------------------------------------------


e-----------------------------------------------------------------------
B--------12---11-------------14-12---11-12.----12.----12.---0-10-11-12--
G-12---13-------14---12-13----------------------------------------------
D-----------------------------------------------------------------------
A-----------------------------------------------------------------------
E-----------------------------------------------------------------------


e-10--------------------------------------------------------------------
B---12-11-10-9---9------------------------------------------------------
G-------------12--12-11-10-9---9----------------------------------------
D---------------------------12--12-11-10-9---9--------------------------
A-----------------------------------------12--12-11-10-9---9------------
E-------------------------------------------------------12--12-11-10-9-8


e-----------------------------------------------------------------------
B-----------------------------------------------------------------------
G-----------------------------------------------------------------------
D-----------------------------------------------------------------------
A-----------------------------------------------------------------------
E-7-6-5-4-3-2-----------------------------------------------------------


Part 8

e-----6/7---x-6-7.----6/7---x-6-7-----------6/7---x-6-7.----6/7---x-6-7-
B-----6/7---x-6-7.----6/7---x-6-7-----------6/7---x-6-7.----6/7---x-6-7-
G-----6/7---x-6-7.----6/7---x-6-7-----------6/7---x-6-7.----6/7---x-6-7-
D-----6/7---x-6-7.----6/7---x-6-7-----------6/7---x-6-7.----6/7---x-6-7-
A-----------------------------------------------------------------------
E-0-----------------------------------0-0.------------------------------


e--------6/7---x-6-7.---x-10.---11.---12--------------------------------
B--------6/7---x-6-7.---x-10.---11.---12--------------------------------
G--------6/7---x-6-7.---x-10.---11.---12--------------------------------
D--------6/7---x-6-7.---x-10.---11.---12--------------------------------
A-0-0.------------------------------------------------------------------
E-----------------------------------------------------------------------


e--------6/7---x-6-7.----6/7---x-6-7------------------------------------
B--------6/7---x-6-7.----6/7---x-6-7------------------------------------
G--------6/7---x-6-7.----6/7---x-6-7------------------------------------
D--------6/7---x-6-7.----6/7---x-6-7------------------------------------
A-----------------------------------------------------------------------
E-0-0.------------------------------------------------------------------


e-7.----6.----5.----6.----7.----6.----5.----6.---x----------------------
B-7.----6.----5.----6.----7.----6.----5.----6.---x----------------------
G-7.----6.----5.----6.----7.----6.----5.----6.---x----------------------
D-7.----6.----5.----6.----7.----6.----5.----6.---x----------------------
A-----------------------------------------------------------------------
E-----------------------------------------------------------------------


e-6/7-----7-----7-----7-----7---7-7---7-7-------------------------------
B-6/7-----7-----7-----7-----7---7-7---7-7-------------------------------
G-6/7-----7-----7-----7-----7---7-7---7-7-------------------------------
D-6/7-----7-----7-----7-----7---7-7---7-7-------------------------------
A-----------------------------------------------------------------------
E-----------------------------------------------------------------------


Part 9

e-----------------------------------------------------------------------
B-----------------------------------------------------------------------
G-----------------------------------------------------------------------
D-------------------------2---2-----------------------------------------
A-------------2---2-4---x-------4---4-2---x-----2-----------------------
E-0---0-3---4-------------------------------3h4-------------------------


e-----------------------------------------------------------------------
B-----------------------------------------------------------------------
G-----------------------------------------------------------------------
D-----------------------------------------------------------------------
A-------------2---2-4---2-4/5---5-4---4-2.------------------------------
E-0---0-3---4-----------------------------------------------------------


e-----------------------------------------------------------------------
B-----------------------------------------------------------------------
G-------------------------2---2-----------------------------------------
D-------------2---2-4---x-------4---4-2---x-----------------------------
A-0---0-3---4-----------------------------------2-----------------------
E-------------------------------------------3h4-------------------------


e-----------------------------------------------------------------------
B-----------------------------------------------------------------------
G-----------------------------------------------------------------------
D-------------------------2---2-----------------------------------------
A-------------2---2-4---x-------4---4-2---x-----2-----------------------
E-0---0-3---4-------------------------------3h4-------------------------


e-----------------------------------------------------------------------
B-----------------------------------------------------------------------
G-----------------------------------------------------------------------
D-----------------------------------------------------------------------
A-2---2-4---x-5---5-4---x-2---2-------------2-----2---------------------
E-------------------------------5.----3/4-----3h4---0.------------------