20131119

HAPPY BIRTHDAY SLASH TAB


Giuseppe Luzzi plays Happy Birthday Slash with his Les Paul guitar.
TAB under the video.



HAPPY BIRTHDAY SLASH TAB

PDF >>

e-0---------------------------------------------------------------------
B-1---------------------------------------------------------------------
G-0---------------------------------------------------------------------
D-2---------------------------------------------------------------------
A-3---------------------------------------------------------------------
E-----------------------------------------------------------------------


e-----------------------------------------------------------------------
B-----------------------------------------------------------------------
G-----------------------------------------------------------------------
D-5~------5-7~----5~------7/10-------9~---------------------------------
A-----------------------------------------------------------------------
E-----------------------------------------------------------------------


e-----------------------------------------------------------------------
B-----------------------------------------------------------------------
G-5-----------------------/7~--------5~---------------------------------
D-5-------5-7~----5---\-------------------------------------------------
A-----------------------------------------------------------------------
E-----------------------------------------------------------------------



e-----------------------------------------------------------------------
B-----------6/8---------------------------------------------------------
G---------------------9-------------------------------------------------
D-5-------5--------------------10-----9h10p9---7~-----------------------
A-----------------------------------------------------------------------
E-----------------------------------------------------------------------


e-----------------------------------------------------------------------
B-----------------------------------------------------------------------
G-/10~------10-9~-----------------------------5-------------------------
D---------------------10.----10/12~-----------5-------------------------
A---------------------------------------------3-------------------------
E-----------------------------------------------------------------------


e----------------------------13-----------------------------------------
B-16(18)---------(16)---16------16p13----13-16p13----13-----------------
G-------------------------------------15----------15--------------------
D-----------------------------------------------------------------------
A-----------------------------------------------------------------------
E-----------------------------------------------------------------------


e-----------------------------------------------------------------------
B-16p13---------------------15------------------------------------------
G-------15(17)---(15)p13----15p13----13~--------------------------------
D------------------------15-------15--------------15p13-15~-------------
A-----------------------------------------------------------------------
E-----------------------------------------------------------------------


e-------------------------x-x-x-----------------------------------------
B-------------------------x-x-x-----------------------------------------
G-------------------------x-x-x-----------------------------------------
D-------------------------x-x-x-----------------------------------------
A-------------------------x-x-x-----------------------------------------
E-\\\\\\\\----------------x-x-x-----------------------------------------