20131113

HOTEL CALIFORNIA ACOUSTIC TAB (INTRO COVER BY ALI STEAD)

Alicia Stead plays a nice Hotel California intro with a Carparelli Spirit of 69 guitar.
Creative and soft playing by a very nice lady.
TAB under the video.


HOTEL CALIFORNIA ACOUSTIC TAB

PDF >>

e-9---------------------------------------------------------------------
B-7------------------------2-3-5-7---7h8p7p5-5/7------------------------
G-7--------4-4h6p4p3-4--------------------------------------------------
D-7---------------------------------------------------------------------
A-9---------------------------------------------------------------------
E-7---------------------------------------------------------------------


e-----------------------------------------------------------------------
B-10-----------3-2.-----------------------------------------------------
G--9-------2-4--------2--2/4---2----------------------------------------
D-11-------------------------------4\2----------------------------------
A-12-------------------------------------2/7~---------------------------
E-----------------------------------------------------------------------


e-0--------------0-------0-------0-------0-------7p0-----10p0-----------
B-0------------0-------0-------0-------0-------8-------8----------------
G-0----------0-------2-------4-------7-------9-------9------------------
D-2--------2-------4-------5-------9------------------------------------
A-2---------------------------------------------------------------------
E-0---------------------------------------------------------------------



e-----7p0-----10p0-----7p0-----10p0-----7p0-----10p0-----7p0-----10p0---
B---8-------8--------8-------8--------8-------8--------8-------8--------
G-9-------9--------9-------9--------9-------9--------9-------9----------
D-----------------------------------------------------------------------
A-----------------------------------------------------------------------
E-----------------------------------------------------------------------


e-----7p0-----10p0-----7p0-----10p0-----7-6-7-9-10-9-10.--12/14-14------
B---8-------8--------8-------8--------8---------------------------------
G-9-------9--------9-------9--------9-----------------------------------
D-----------------------------------------------------------------------
A-----------------------------------------------------------------------
E-----------------------------------------------------------------------


e-2-------2h3p2---2-2.------2.------------------------------------------
B-3-------------5-------5.------3.--5p3---------------------------------
G-4-----4-------------------------------4-----2/4-----------------------
D-4-----4---------------------------------------------------------------
A-2---------------------------------------------------------------------
E-----------------------------------------------------------------------


e-------------------------------------------------------------7---------
B-10---------3-2.--------2-----3/5.----------5.--8/9.--7h8h10-----------
G--9-----2h4-------2-2/3-----0-----------6-7----------------------------
D-11---------------------------------5/7--------------------------------
A-12--------------------------------------------------------------------
E-----------------------------------------------------------------------


e-9-10.--9.--10-12-\\\----------0-----------0-----------0-----------0---
B-------------------------------0-----------0-----------0---------0-----
G-----------------------------0-----------2-----------4---------7-------
D-------------------------2-----------4-----------5-----------9---------
A-----------------------------------------------------------------------
E-----------------------------------------------------------------------


e-7p0---10/12-12p10-----------------------------------------------------
B-----0-------------12~-------------------------------------------------
G-----------------------------------------------------------------------
D-----------------------------------------------------------------------
A-----------------------------------------------------------------------
E-----------------------------------------------------------------------


e-9--9h10p9-7h9p7-6---3-2h3p2-------------------------------------------
B-----------------------------3---2-------------------------------------
G-----------------------------------4-3~--------------------------------
D-----------------------------------------------------------------------
A-----------------------------------------------------------------------
E-----------------------------------------------------------------------


e-------2---------2-----------2.--------2---------2---------------------
B---3-------3---------3-------3.------------2-----2---------------------
G-----4-----------------------4.------3-----------3---------------------
D-----4-----------------------4.------4-----------4---------------------
A-2---2---------2---------2-----------4-----------4---------------------
E---------------------------------2-------------2-----------------------


e-------0---------0---------------------0---------0---------------------
B-----------2---------2---------2-----------0-----0---------------------
G-----2-----------------------2-------1-----------1---------------------
D-----2---------------------2---------2-----------2---------------------
A-0-------------0---------0-----------2-----------2---------------------
E---------------------------------0---------------0---------------------


e-------3---------3---------------------2---------2---------------------
B-----------3---------3---------3-------3---3---------------------------
G-----4-----------------------4-------2---------2-----------------------
D-----5---------------------5-----0-------------------------------------
A-----5---------------------------0-------------------------------------
E-3-------------3---------3---------------------------------------------


e-------0---------0---------------------2---------2-------2-------2-----
B-----------0---------0---------------------2-----2-------2---0---3-----
G-----0-----------------------0-------3-----------3-------3---0---4-----
D-----2-----------------------2-------4-----------4-------4---0---4-----
A-----2-----------------------2-------4-------------------4---0---2-----
E-0-------------0---------0-------2-------------2---------2-------------


e-2.--------------------------------------------------------------------
B-3.--------------------------------------------------------------------
G-4.--------------------------------------------------------------------
D-4.--------------------------------------------------------------------
A-2.--------------------------------------------------------------------
E-----------------------------------------------------------------------