20131129

LOVE THEME FROM THE GODFATHER TAB (GUITAR COVER BY LAI YOUTTITHAM)

Lai Youttitham plays a brilliant guitar cover of the Love theme from the Godfather.
It sounds exciting with the tremolo bar but don't worry if you don't have it on your guitar.
TAB under the video.



LOVE THEME FROM THE GODFATHER TAB

PDF >>

Part 1

e------10-/-13---12---10---13-p-10-/-12---10----------------------------
B-10-------------------------------------------11-/-13---10~------------
G-----------------------------------------------------------------------
D-----------------------------------------------------------------------
A--- USE THE TREMOLO BAR -----------------------------------------------
E-----------------------------------------------------------------------


e------10-/-13---12---10---13-p-10-/-12---10----------------------------
B-10-------------------------------------------10---9-------------------
G-------------------------------------------------------12~-------------
D-----------------------------------------------------------------------
A-----------------------------------------------------------------------
E-----------------------------------------------------------------------


e-----------9-/-12~---------------------------9---10~-------------------
B------11--------------------------------11-----------------------------
G-12--------------------------------12----------------------------------
D-----------------------------------------------------------------------
A-----------------------------------------------------------------------
E-----------------------------------------------------------------------



e-----------------------------------------------------------------------
B--------------13---11---10---13---11---11---10---10--------------------
G---------10------------------------------------------------------------
D-10/12------------------------------------------------11---11/12~------
A-----------------------------------------------------------------------
E-----------------------------------------------------------------------


e-------10-13/17p13-----------------------------------------------------
B-----10-----------15---------------------------------------------------
G---10---------------14~------------------------------------------------
D-12--------------------------------------------------------------------
A-----------------------------------------------------------------------
E-----------------------------------------------------------------------


Part 2

e----------------------------------12~------10--------------------------
B-15---15---14---13~------13~--------------------11---10~~~-------------
G-----------------------------------------------------------------------
D-----------------------------------------------------------------------
A-----------------------------------------------------------------------
E-----------------------------------------------------------------------


e-----------------------------------------------------------------------
B-10---13-p-10--------------------------------11---9---10---------------
G----------------12~~~-------------------12-----------------------------
D-----------------------------------------------------------------------
A-----------------------------------------------------------------------
E-----------------------------------------------------------------------

          T
e----9h12-17p12p9-------------------------------------------------------
B--10------------10-----------------------------------------------------
G-9----------------9----------------------------------------------------
D-------------------11--------------------------------------------------
A---------------------12------------------------------------------------
E-----------------------------------------------------------------------


Part 3

e------10-/-13---12---10---13-p-10-/-12---10----------------------------
B-10-------------------------------------------11-/-13---10~------------
G-----------------------------------------------------------------------
D-----------------------------------------------------------------------
A--- USE THE TREMOLO BAR -----------------------------------------------
E-----------------------------------------------------------------------


e------10-/-13---12---10---13-p-10-/-12---10----------------------------
B-10-------------------------------------------10---9-------------------
G-------------------------------------------------------12~-------------
D-----------------------------------------------------------------------
A-----------------------------------------------------------------------
E-----------------------------------------------------------------------


Part 4 (acoustic part)

e-------10-13-12h13p12---10-------13-10-12---10h12p10-------------------
B-/10-----------------------------------------------------11-13-10h11p10
G-----------------------------------------------------------------------
D-----------------------------------------------------------------------
A-----------------------------------------------------------------------
E-----------------------------------------------------------------------


e-------10-13-12h13p12---10-------13-12h13p10-12---10-------------------
B-/10-------------------------------------------------------10-9-8------
G-----------------------------------------------------------------------
D-----------------------------------------------------------------------
A-----------------------------------------------------------------------
E-----------------------------------------------------------------------


e-----------9---12-----------------------------9---10-------------------
B-/8---11----------------------------/8---11----------------------------
G-----------------------------------------------------------------------
D-----------------------------------------------------------------------
A-----------------------------------------------------------------------
E-----------------------------------------------------------------------


e-----------8-6---5~------8-6-6---5-5~------9---10~---------------------
B-------6---------------------------------------------------------------
G-5/7-------------------------------------------------------------------
D-----------------------------------------------------------------------
A-----------------------------------------------------------------------
E-----------------------------------------------------------------------


e-9h10------------------------------------------------------------------
B------10h11-8h10-------------------------------------------------------
G-----------------10h12-9h10--------------------------------------------
D----------------------------11h12--------------------------------------
A-----------------------------------------------------------------------
E-----------------------------------------------------------------------


Part 5

e-----------------------------------------------------------------------
B-15---15---14---13~------15(17)(15)(17)-----(17)(15)-----11-10~~~------
G-----------------------------------------------------------------------
D-----------------------------------------------------------------------
A-----------------------------------------------------------------------
E-----------------------------------------------------------------------


e-----------------------------------------------------------------------
B-10---13-p-10----------------------------------------------------------
G----------------12-----------------------------------------------------
D-----------------------------------------------------------------------
A-----------------------------------------------------------------------
E-----------------------------------------------------------------------

                                        T
e--------------11--11h15p11-15/18p15h18-20p18p15----18---16-17~~~---\\\-
B----------------15-----------------------------16----------------------
G---12-15p13h15-----------------------------------15--------------------
D-13--------------------------------------------------------------------
A-----------------------------------------------------------------------
E-----------------------------------------------------------------------


Part 6

e-------10.---13.---12-(13)(12)p10.---13~-----p10-12~---p10~------------
B-/10-------------------------------------------------------------------
G-----------------------------------------------------------------------
D-----------------------------------------------------------------------
A-----------------------------------------------------------------------
E-----------------------------------------------------------------------


e-----------------------------------------------------------------------
B-11---/13---10~~~------------------------------------------------------
G-----------------------------------------------------------------------
D-----------------------------------------------------------------------
A-----------------------------------------------------------------------
E-----------------------------------------------------------------------


e-------10----13.---12~~~-p10-12(13)---(12)p10-15(17)~~~----------------
B-/10------10-----------------------------------------------------------
G-----------------------------------------------------------------------
D-----------------------------------------------------------------------
A-----------------------------------------------------------------------
E-----------------------------------------------------------------------

                            T           T           T           T
e-15(18)---------(15)p13h17-18p17p13h17-18p17p13h17-18p17p13h17-18p17p13
B-----------------------------------------------------------------------
G-----------------------------------------------------------------------
D-----------------------------------------------------------------------
A-----------------------------------------------------------------------
E-----------------------------------------------------------------------

      T           T        T              T           T           T
e-h17-18p17p13h17-18p17p13-18p17p13\12h15-18p15p12h15-18p15p12h15-18p15p
B-----------------------------------------------------------------------
G-----------------------------------------------------------------------
D-----------------------------------------------------------------------
A-----------------------------------------------------------------------
E-----------------------------------------------------------------------

        T           T           T        T        T             T
e-12h15-18p15p12h15-18p15p12h15-18p12h15-18p12h15-18p15p12\9h12-15p12p9-
B-----------------------------------------------------------------------
G-----------------------------------------------------------------------
D-----------------------------------------------------------------------
A-----------------------------------------------------------------------
E-----------------------------------------------------------------------

      T       T       T       T             T
e-h12-15p12p9-15p12p9-15p12p9-15p12p9/10h13-15p13p10h13p10--------------
B---------------------------------------------------------h13-----------
G-----------------------------------------------------------------------
D-----------------------------------------------------------------------
A-----------------------------------------------------------------------
E-----------------------------------------------------------------------

  T                 T                 T                 T
e-----------------------------------------------------------------------
B-15p13p10h13p10--------------------------------------------------------
G---------------h12-14p12p10h12p10--------------------------------------
D---------------------------------h12-15p12p10h12p10--------------------
A---------------------------------------------------h12-15p12p10h12~~~\\
E-----------------------------------------------------------------------


e-----------------------------------------------------------------------
B-----------------------------------------------------10-11-13----------
G--------------------------------------9-10-12-9-10-12------------------
D-----------------------8-10-12-8-10-12---------------------------------
A--------8-10-12-8-10-12------------------------------------------------
E-8-10-12---------------------------------------------------------------


e---------10-12-13-12-10------------------------------------------------
B-10-11-13--------------13-10-13(15)~~~---------------------------------
G-----------------------------------------------------------------------
D-----------------------------------------------------------------------
A-----------------------------------------------------------------------
E-----------------------------------------------------------------------


e-5h6h8p6p5-------------------------------------------------------------
B----------h8-5h6h8p6p5-------------------------------------------------
G----------------------h7-3h5h7p5p3\2h3h5p3p2p0-------------------------
D----------------------------------------------h2h3h5p3p2p0-------------
A----------------------------------------------------------h1h3h5p3p1p0-
E-----------------------------------------------------------------------


e-----------------------------------------------------------------------
B-----------------------------------------------------------------------
G-----------------------------------------------------------------------
D-----------------------------------------------------------------------
A-h3-/4-/5---~~~---------------///--\\\---------------------------------
E-----------------------------------------------------------------------