20131104

POOH DOVE COMINCIA IL SOLE TAB

Brilliant guitar playing in Dove Comincia il Sole played by Pooh. The request was only for the solo part between 6:32 - 10:21 so the TAB covers only that particular section.
If you need the complete tab just MAKE A TAB REQUEST HERE



POOH DOVE COMINCIA IL SOLE TAB                                              Printable tab here

Part 1

e-----------------------------------------------------------------------
B-----------------------------------------------------------------------
G-----------------------------------------------------------------------
D---------9~----9.--9-7-9(10)~-----------------------7/9~---------------
A-7---7.---------------------------7-(8)-(7)-----5----------------------
E-----------------------------------------------------------------------


e-----------------------------------------------------------------------
B-----------------------------------------------------------------------
G-----------------------------------------------------------------------
D---------7~----7.--7---6---7/9~-------------------5/7~-----------------
A-5---5---------------------------5---(7)(5)~----3----------------------
E-----------------------------------------------------------------------


e-----------------------------------------------------------------------
B-----------------------------------------------------------------------
G-----------------------------------------------------------------------
D---------9~----9.--9-7-9(10)~-----------------------7/9~---------------
A-7---7~---------------------------7-(8)-(7)-----5----------------------
E-----------------------------------------------------------------------


e-----------------------------------------------------------------------
B-----------------------------------------------------------------------
G-----------------------------------------------------------------------
D---------7~-----7---6---7/9~------------------------5/7~---------------
A-5---5------------------------5---5-(7)-(5)~----3----------------------
E-----------------------------------------------------------------------


Part 2

e-----------------------------------------------------------------------
B-----------------------------------------------------------------------
G-7/9~------9-9-6~------9(10)---(9)~------7---\---2~--------------------
D-------------------7~--------------------------------------------------
A-----------------------------------------------------------------------
E-----------------------------------------------------------------------


e-----------------------------------------------------------------------
B----3~-----------------------------------------------------------------
G---4.-------5/7---7-4~--------7-(9)-(7)~---------5~--------------------
D--5.----------------------5~-------------------------5~----------------
A-5.--------------------------------------------------------------------
E-----------------------------------------------------------------------


e-----------------------------------------------------------------------
B-----------------------------------------------------------------------
G-5~--5~----5-5-3---(5)(3)p2~----3/5~---------3p2h3~--------------------
D-----------------------------------------------------------------------
A-----------------------------------------------------------------------
E-----------------------------------------------------------------------


e-----------------------------------------------------------------------
B-----------------------------------------------------------------------
G-----------------------------------------------------------------------
D-5-7-7h8~---------8-8-7-----(8)(7)-5-----/8~------7h8p7p5-7~-----------
A-----------------------------------------------------------------------
E-----------------------------------------------------------------------


e-----------------------------------------------------------------------
B-----------------------------------------------------------------------
G--------------------------------------------4~----4h5-7-\--------------
D-/7~-------6---4---6~-------------5~----5h7----------------------------
A-----------------------------------------------------------------------
E-----------------------------------------------------------------------


Part 3

e-----------------------------------------------------------------------
B----------------------------8-8-----------------------9----------------
G-/8---10---10(12)~--------------10(12)~------10(12)-----10(12)~--------
D-----------------------------------------------------------------------
A-----------------------------------------------------------------------
E-----------------------------------------------------------------------


e-----------------------------------------------------------------------
B-----------------------------------------------------------------------
G-(12)(10)-8---10~------------------------------------------------------
D-----------------------------------------------------------------------
A-----------------------------------------------------------------------
E-----------------------------------------------------------------------


e-----------------------------------------------------------------------
B------------------------------11-\-------------------------------------
G-/7---8-8/10~------10~--10-10--------7---10~------8-7-8~---------------
D-----------------------------------------------------------------------
A-----------------------------------------------------------------------
E-----------------------------------------------------------------------


e-----------------------------------------------------------------------
B------------------------------8-11(13)---(11)(13)----------------------
G-8---10---10(12)~------10(12)-----------------------8---10(12)~--------
D-----------------------------------------------------------------------
A-----------------------------------------------------------------------
E-----------------------------------------------------------------------


e-----------------------------------------------------------------------
B-----------------------------------------------------------------------
G-(12)(10)-8-10-\-------------------------------------------------------
D-----------------------------------------------------------------------
A-----------------------------------------------------------------------
E-----------------------------------------------------------------------


e-----------------------------------------------------------------------
B----------------------------11-----11----------------------------------
G-7---8---8(10)~-------10-10-----------------7---8(10)~-----(10)(8)-7-8~
D-----------------------------------------------------------------------
A-----------------------------------------------------------------------
E-----------------------------------------------------------------------


Part 4

e-----------------------------------------------------------------------
B-----------------------------------------------------------------------
G-5-7-8-7-5-7-8-7-5-7-8.--5-7-8.--7-8-10-8-7-8-10-8-7-8-10.--7-8-10.----
D-----------------------------------------------------------------------
A-----------------------------------------------------------------------
E-----------------------------------------------------------------------
  x x x x x x x x                 x x x  x x x x  x x x      x x

e---------------------------------------------------8.----8-10.----8-10.
B------8.-------8.-----8-9.-----8-9.--8-9-11.--9-11-----11-------11-----
G-8-10-----8-10-----10-------10-----------------------------------------
D-----------------------------------------------------------------------
A-----------------------------------------------------------------------
E-----------------------------------------------------------------------
  x x      x x      x        x                                   x

e-7-8-10-8-7-8-10-8-7-8-10.--7-8-10.------------------------------------
B-----------------------------------------------------------------------
G-------------------------------------7-9-10-9-7-9-10-7-9~-----\\\------
D-------------------------------------------------------9~-----\\\------
A-----------------------------------------------------------------------
E-----------------------------------------------------------------------
                                      x x x  x x x x 

e-12------\\\-----------------------------------------------------------
B-12------\\\-----------------------------------------------------------
G-----------------------------------------------------------------------
D-----------------------------------------------------------------------
A-----------------------------------------------------------------------
E-----------------------------------------------------------------------


Part 5

e-----------------------------------------------------------------------
B--------12~----12.--12-10-12(13)~-------------------------10/12~---\---
G-/9---9------------------------------------9(10)(9)-----7--------------
D-----------------------------------------------------------------------
A-----------------------------------------------------------------------
E-----------------------------------------------------------------------


e-----------------------------------------------------------------------
B--------10~----10---10-9-10(12)-------------------------8/10~----------
G-/7---7---------------------------7-----7(9)(7)-------5----------------
D-----------------------------------------------------------------------
A-----------------------------------------------------------------------
E-----------------------------------------------------------------------


e-----------------------------------------------------------------------
B--------12~--------12---10---12(13)~-------------------------10h12~----
G-/9---9------------------------------------9(10)(9)--------------------
D--------------------------------------------------------12-------------
A-----------------------------------------------------------------------
E-----------------------------------------------------------------------


e-----------------------------------------------------------------------
B--------10~----10.--10-9-10(12)-------------------------8h10~----------
G-/7---7-------------------------7~------7(9)(7)------------------------
D-----------------------------------------------------10----------------
A-----------------------------------------------------------------------
E-----------------------------------------------------------------------


Part 6

e-----------------------------------------------------------------------
B-12h13p12--12-13-15-15(17)~~~--------15(17)(15)(17)-14-----------------
G---------14----------------------------------------------14~-----------
D-----------------------------------------------------------------------
A-----------------------------------------------------------------------
E-----------------------------------------------------------------------


e-----------------------------------------------------------------------
B-17~---(18)~---(17)~------15-------------------------------------------
G-------------------------------12~-----\\\-----------------------------
D-----------------------------------------------------------------------
A-----------------------------------------------------------------------
E-----------------------------------------------------------------------


e-----------------------------------------------------------------------
B------------------------------------15---15----------------------------
G-/14(16)---/15(17)---/17(19)~---------------16~------------------------
D---------------------------------------------------17.-----------------
A-----------------------------------------------------------------------
E-----------------------------------------------------------------------


e-----------------------------------------------------------------------
B-----------------------------------------------------------------------
G-19---(21)---(19)~------17~--------------------------------------------
D------------------------------17~--------------------------------------
A-----------------------------------------------------------------------
E-----------------------------------------------------------------------


e-----------------------------------------------------------------------
B----------13~------13-13-----------------------------------------------
G-15(17)------------------15~----(17)(15)-14~--15(17)~------15-14-15~--\
D-----------------------------------------------------------------------
A-----------------------------------------------------------------------
E-----------------------------------------------------------------------


e-----------------------------------------------------------------------
B------------------------------------11-11------------------------------
G-/10(12)---/12(14)---/13(15)~-------------14~----12~-------------------
D-----------------------------------------------------------------------
A-----------------------------------------------------------------------
E-----------------------------------------------------------------------


e-----------------------------------------------------------------------
B-----------------------------------------------------------------------
G-14(15)~---------(15)(14)-12-14~---------------------------------------
D-----------------------------------------------------------------------
A-----------------------------------------------------------------------
E-----------------------------------------------------------------------


e-----------------------------------------------------------------------
B-----------------------------------------------------------------------
G-13(14)~---------(14)(13)-11-13~---------------------------------------
D-----------------------------------------------------------------------
A-----------------------------------------------------------------------
E-----------------------------------------------------------------------


Part 7

e-----------------------------------------------------------------------
B----------------------------------------15.--16.--18.--18(20)~---------
G-----------------------------------15-17-------------------------------
D---------------------------15-17-18------------------------------------
A------14h15p14--14-15-17-18--------------------------------------------
E-15-17--------17-------------------------------------------------------


e-15--------------------------------------------------------------------
B------18(20)~--------18(20)---(21)-(20)~---------(20)(18)-16-18~--\\\--
G-----------------------------------------------------------------------
D-----------------------------------------------------------------------
A-----------------------------------------------------------------------
E-----------------------------------------------------------------------


e-----------------------------------13---13---13---18-------------------
B-/13(15)---/14(16)---/16(18)-------------------------------------------
G-----------------------------------------------------------------------
D-----------------------------------------------------------------------
A-----------------------------------------------------------------------
E-----------------------------------------------------------------------


e---------------------------------------18p16p15------------------------
B-15-------18~---------16-15-16~----------------18-16-15-16-18----------
G-----------------------------------------------------------------------
D-----------------------------------------------------------------------
A-----------------------------------------------------------------------
E-----------------------------------------------------------------------


e---------------------------15-20~----20~-------------------------------
B-18(20)~------------18(20)------------------16---18(20)~---------------
G-----------------------------------------------------------------------
D-----------------------------------------------------------------------
A-----------------------------------------------------------------------
E-----------------------------------------------------------------------


e-----------------------------------------------------------------------
B-(20)-(18)-16-18~------------------------------------------------------
G-----------------------------------------------------------------------
D-----------------------------------------------------------------------
A-----------------------------------------------------------------------
E-----------------------------------------------------------------------


e---------------------------------13-16(18)~----(18)~-------------------
B-15---16-16(18)~--------16(18)-----------------------------------------
G-----------------------------------------------------------------------
D-----------------------------------------------------------------------
A-----------------------------------------------------------------------
E-----------------------------------------------------------------------


e-----------------------------------------------------------------------
B-15---16(18)~-----------------(18)(16)p15-16~--------------------------
G-----------------------------------------------------------------------
D-----------------------------------------------------------------------
A-----------------------------------------------------------------------
E-----------------------------------------------------------------------


Part 8

e-----------------------------------------------------------------------
B-----------------------------------------------------------------------
G-5-7-8-7-5-7-8-7-5-7-8.--5-7-8.--7-8-10-8-7-8-10-8-7-8-10.--7-8-10.----
D-----------------------------------------------------------------------
A-----------------------------------------------------------------------
E-----------------------------------------------------------------------
  x x x x x x x x x x     x x     x x x 

e---------------------------------------------------8.----8-10.----8-10.
B------8~-------8~-----8-9~-----8-9~--8-9-11.--9-11-----11-------11-----
G-8-10-----8-10-----10-------10-----------------------------------------
D-----------------------------------------------------------------------
A-----------------------------------------------------------------------
E-----------------------------------------------------------------------
           x x     

e-7-8-10-8-7-8-10-\--/8-10-(11)(10)-8-10-(11)(10)-8-10-11-\-/8-10-11~---
B-----------------------------------------------------------------------
G-----------------------------------------------------------------------
D-----------------------------------------------------------------------
A-----------------------------------------------------------------------
E-----------------------------------------------------------------------
  

e-10-11-13-11-10-11-13-11-10-11-13~--10-11-13~--11-13-15~--11-13-15.----
B-----------------------------------------------------------------------
G-----------------------------------------------------------------------
D-----------------------------------------------------------------------
A-----------------------------------------------------------------------
E-----------------------------------------------------------------------


e-13-15-16.--13-15-16~---15-16-18.--16-18-20.---------------------------
B-----------------------------------------------------------------------
G-----------------------------------------------------------------------
D-----------------------------------------------------------------------
A-----------------------------------------------------------------------
E-----------------------------------------------------------------------


e-18-20-20(22).--18-20-20(22).--19-20-20(22)-20-19-20-20(22)---24-------
B-----------------------------------------------------------------------
G-----------------------------------------------------------------------
D-----------------------------------------------------------------------
A-----------------------------------------------------------------------
E-----------------------------------------------------------------------



Are you satisfied with this guitar tab? Send your idea which song or guitar riff should be the next for tabbing by making a TAB REQUEST HERE
    
SEE MORE ON GUITAR TABS A-Z