20131119

HANSEL PETHIG FIELDS OF GOLD TAB (FINGERSTYLE GUITAR COVER)

Hansel Pethig's fingerstyle guitar cover of Fields of Gold by Sting.
He uses standard tuning with CAPO on the 2nd fret.
See the TAB below.



HANSEL PETHIG FIELDS OF GOLD TAB

GP5 + GP6 + PDF >>

CAPO on the 2nd fret

Part 1

e-<12>-------<12>-----------------<12>-------<12>-----------------------
B-<12>-------<12>------------<12>-<12>-------<12>-----------------------
G-<12>-------<12>-------<12>------<12>-------<12>-----------------------
D-----------------------------------------------------------------------
A-----------------------------------------------------------------------
E--0----------0--------------------0----------0-------------------------


e-<12>-------<12>-----------------<12>----------------------------------
B-<12>-------<12>------------<12>-<12>----------------------------------
G-<12>-------<12>-------<12>------<12>----------------------------------
D-----------------------------------------------------------------------
A-----------------------------------------------------------------------
E--0----------0--------------------0------------------------------------


Part 2

e-2/3---2---0-----------------------3---2---0-----------0---------------
B-------------------3---3---------------------------3-------------------
G-------------------4---4-------------------------------------------0---
D---------------0---------------5---------------2---------------2-------
A-------------------------------------------3---------------3-----------
E-----------0---------------0-------------------------------------------



e-----0-----------0-----------------------------------------------------
B-1h3-----------------3-----------0-------3-----------------------------
G-------------0---------------2-------------------0---------------------
D---------2---------------0-------------------0-----------0-------------
A-----3-----------------------------------------------------------------
E---------------------2---------------3---------------3-----------------


e-2/3---2---0-----------------------3---2---0---------------------------
B-------0-----------3---3---------------------------3---3---------------
G-------------------4---4---------------------------0-------------------
D---------------0---------------5---------------2---------------0-------
A-------------------------------------------3---------------2-----------
E-----------0---------------0-------------------------------------------


e-----------------------------------------3-----------3-----------------
B-----0---1-----------0---0-----------0---------------------------0-----
G-0h2-----0-------0---0-----------2---0-----------0-----------0-------0-
D-------------2---------------0---------------2-----------2-------------
A---------0-------------------------------------------------------------
E-------------------------2---------------0-----------0-----------------


e-3-----------2p0-----------------------------------------3-------------
B-----------------3-------1-------3-----------3-------1---1---1---------
G---------0-----------0-------0-----------0---0-------0-----------------
D-----2-------------------------------0---------------------------------
A-3---------------------------------------------------------------------
E---------------------------------3---------------3---------------------


e-----------------3-----------------------------------------------------
B-0-----------0---------------------------------------------------------
G---------0-----------0-------------------------------------------------
D-----0-----------------------------------------------------------------
A-----------------------------------------------------------------------
E-3---------------------------------------------------------------------




DOWNLOAD THIS TAB IN GUITAR PRO



  • click 'Free Download'
  • add your e-mail address
  • you will get an e-mail with your download links (in a few seconds)
  • download the Guitar Pro 6 tab + GP5 + PDF for free
  • and that's all ...


Guitar Pro: a complete workshop for guitarists at an affordable price