20131216

ALADDIN A WHOLE NEW WORLD TAB (FINGERSTYLE GUITAR COVER BY OSAMURAI SAN)

Osamurai San plays a fingerstyle guitar cover of 'A Whole New World' from Aladdin.
He uses Dropped D tuning with a Capo on the 2nd then later about 1:35 on the 3rd.
See the TAB under the video.



OSAMURAI SAN ALADDIN A WHOLE NEW WORLD TAB

GP5 + GP6 + PDF >> 

CAPO on the 2nd

Part 1   

e-------------0-------------------------------0---0h1-------------------
B---------3-------------------------------3---------------3-------------
G-----0-------------------------------0---------------------------------
D-----------------------------------------------------------------------
A-3-------------------------------3-------------------------------------
D-----------------------------------------------------------------------


e-------------0-------------------------------0---0h1-------------------
B---------3-------------------------------3---------------3-------------
G-----0-------------------------------0---------------------------------
D-----------------------------------------------------------------------
A-3-------------------------------3-------------------------------------
D-----------------------------------------------------------------------


e-0-----------0h1----p0-------------------------------------------------
B-1-------3---3-----------1---------------------------------------------
G-0-----------0---------------0-----------------------------------------
D-----2---------------------------------------2-h-3-------0-------------
A-3-------------------------------3-------------------------------------
D-----------------------------------------------------------------------



e-0-----------0h1----p0-----------0-------------------------------------
B-1-------3---3-----------1-------1-----------6\5-3---------------------
G-0-----------0---------------0---0-------0-------0---------------------
D-----2-------------------------------2-----------0---------------------
A-3-------------------------------0-------------------------------------
D-------------------------------------------------5---------------------


e-------------0---------------------------------------------------------
B-3-------2.--0-------3---0-------3-------1-------0---------------------
G-2-------------------1-----------0-------0-------0-------5-------------
D-3---3---------------0-------0-------2-------2-------0-----------------
A---------------------------------0-------------------------------------
D-3-----------2-----------------------------------5---------------------


e-----------------------------------------------------------------------
B-----0-------3-------1-------------------------------------------------
G-2-----------2---------------0-----------------------------------------
D-3-------3-----------------------------------2-h-3-------0-------------
A---------------------------------3-------------------------------------
D-3---------------------------------------------------------------------


Part 2

e-0-----------0h1----p0-------------------------------------------------
B-1-------3---3-----------1---------------------------------------------
G-0-----------0---------------0-----------------------------------------
D-----2---------------------------------------2-h-3-------0-------------
A-3-------------------------------3-------------------------------------
D-----------------------------------------------------------------------


e-0-----------0h1----p0-----------0-------------------------------------
B-1-------3---3-----------1-------1-----------6\5-3---------------------
G-0-------0---0---------------0---0-------0-------0---------------------
D-----2-------------------------------2-----------0---------------------
A-3-------------------------------0-------------------------------------
D-------------------------------------------------5---------------------


e-------------0---------------------------------------------------------
B-3-------2.--0-------3---0-------3---1-------0-------------------------
G-2-------2.--1-------1-----------0-----------0-----------5-------------
D-3---3---------------0-------0-----------2-----------0-----------------
A---------------------------------0-------------------------------------
D-3-----------2-------------------------------5-------------------------


e-----------------------------0-----------------------------------------
B-----0-------3-------1-------------------------------------------------
G-2-----------2---------------------------------------------------------
D-3-------3-------------------------------------------------------------
A-----------------------------------------------------------------------
D-3---------------------------------------------------------------------


Part 3

e-------------0-------1-------3/5-----3---------------------------------
B---------------------1---------------0-------------------0-------------
G---------0-----------2---------------0-----------0-----------0---------
D-----2---------------3-----------------------0-------------------------
A-3---------------------------------------------------------------------
D-------------------------------------5---------------------------------


e-0---------------------------------------------------------------------
B-1---------------------------------------------------------------------
G-0-----------------------2---------------------------------------------
D-2-----------2---3---------------5-----------0---3-------2p0-----------
A-3---------------3-----------------------------------------------------
D---------------------------------5---------------6---------------------


e-----------------0-----------------------------------------------------
B-------------1---------------------------0-----------------------------
G---------0---------------------------0---2-------2-p-0---0-------------
D-2-------------------2-------3---------------3-----------2-------------
A-0-------------------1-----------------------------------3-------------
D-----------------------------------------3-----------------------------


e-----------------------------------------------------------------------
B-0-------1-------------------------------------------------------------
G-2-----------0-----------0---------------------------------------------
D-----3-------2-------0h2-----2---2-------0-------------------0---------
A-------------3-------------------0-----------3-------0-----------------
D-3-------------------------------------------4---------------5---------




DOWNLOAD THIS TAB IN GUITAR PRO



  • click 'Free Download'
  • add your e-mail address
  • you will get an e-mail with your download links (in a few seconds)
  • download the Guitar Pro 6 tab + GP5 + PDF for free
  • and that's all ...


Guitar Pro: a complete workshop for guitarists at an affordable price