20131226

BILLY IDOL RUN RUDOLPH RUN TAB

There is a cool song on Billy Idol's christmas album (Happy Holidays) called  
Run Rudolph Run. Cool Chuck Berry style guitar solos ...
See the TAB below.



BILLY IDOL RUN RUDOLPH RUN TAB

PDF >>

Intro

e------7-7-7-7-7--------------------------------------------------------
B------7-7-7-7-7-9-7-----7-7-7-7-7-7------------------------------------
G-/8-------------9-7h8---7-7-7-7-7-8------------------------------------
D----------------------9-------------9----------------------------------
A-----------------------------------------------------------------------
E-----------------------------------------------------------------------


e---------7-7---------7---------7-------7-10-10'------------------------
B---------7-7-7-------7-7-------7-------7-9--9'-------------------------
G-9(11)-------9(11)-----9(11)-----9(11)---------------------------------
D-----------------------------------------------------------------------
A-----------------------------------------------------------------------
E-----------------------------------------------------------------------



e-----------------------------------------------------------------------
B-----------------------------------------------------------------------
G-----------------------------------------------------------------------
D-9-9-11-9-9-9-11-9--9-9-11-9-9-9-11-9----------------------------------
A-7-7-7--7-7-7-7--7--7-7-7--7-7-7-7--7----------------------------------
E-----------------------------------------------------------------------
  x x x  x x x x  x  x x x  x x x x  x


e-----------------------------------------------------------------------
B-----------------------------------------------------------------------
G-----------------------------------------------------------------------
D-----------------------------------------------------------------------
A-9-9-11-9-9-9-11-9--9-9-11-9-9-9-11-9----------------------------------
E-7-7-7--7-7-7-7--7--7-7-7--7-7-7-7--7----------------------------------
  x x x  x x x x  x  x x x  x x x x  x


e-----------------------------------------------------------------------
B-----------------------------------------------------------------------
G-----------------------------------------------------------------------
D-11-11-13-11-11-11-13-11--11-11-13-11-11-11-13-11----------------------
A-9--9--9--9--9--9--9--9---9--9--9--9--9--9--9--9-----------------------
E-----------------------------------------------------------------------
  x  x  x  x  x  x  x  x   x  x  x  x  x  x  x  x



e-----------------------------------------------------------------------
B-----------------------------------------------------------------------
G-----------------------------------------------------------------------
D-----------------------------------------------------------------------
A-9-9-11-9-9-9-11-9--9-9-11-9-9-9-11-9----------------------------------
E-7-7-7--7-7-7-7--7--7-7-7--7-7-7-7--7----------------------------------
  x x x  x x x x  x  x x x  x x x x  x



Verse / Chorus

e-----------------------------------------------------------------------
B-----------------------------------------------------------------------
G-----------------------------------------------------------------------
D--------------------9-9-11-9-9-9-11-9----------------------------------
A-9-9-11-9-9-9-11-9--7-7-7--7-7-7-7--7----------------------------------
E-7-7-7--7-7-7-7--7-----------------------------------------------------
  x x x  x x x x  x  x x x  x x x x  x


e-----------------------------------------------------------------------
B-----------------------------------------------------------------------
G-----------------------------------------------------------------------
D-----------------------------------------------------------------------
A-9-9-11-9-9-9-11-9--9-9-11-9-9-9-11-9----------------------------------
E-7-7-7--7-7-7-7--7--7-7-7--7-7-7-7--7----------------------------------
  x x x  x x x x  x  x x x  x x x x  x


e-----------------------------------------------------------------------
B-----------------------------------------------------------------------
G-----------------------------------------------------------------------
D-9-9-11-9-9-9-11-9--9-9-11-9-9-9-11-9----------------------------------
A-7-7-7--7-7-7-7--7--7-7-7--7-7-7-7--7----------------------------------
E-----------------------------------------------------------------------
  x x x  x x x x  x  x x x  x x x x  x


e-----------------------------------------------------------------------
B-----------------------------------------------------------------------
G-----------------------------------------------------------------------
D-----------------------------------------------------------------------
A-9-9-11-9-9-9-11-9--9-9-11-9-9-9-11-9----------------------------------
E-7-7-7--7-7-7-7--7--7-7-7--7-7-7-7--7----------------------------------
  x x x  x x x x  x  x x x  x x x x  x


e-----------------------------------------------------------------------
B-----------------------------------------------------------------------
G-----------------------------------------------------------------------
D-11-11-13-11-11-11-13-11--11-11-13-11-11-11-13-11----------------------
A-9--9--9--9--9--9--9--9---9--9--9--9--9--9--9--9-----------------------
E-----------------------------------------------------------------------
  x  x  x  x  x  x  x  x   x  x  x  x  x  x  x  x



e-----------------------------------------------------------------------
B-----------------------------------------------------------------------
G-----------------------------------------------------------------------
D-----------------------------------------------------------------------
A-9-9-11-9-9-9-11-9--9-9-11-9-9-9-11-9----------------------------------
E-7-7-7--7-7-7-7--7--7-7-7--7-7-7-7--7----------------------------------
  x x x  x x x x  x  x x x  x x x x  x



Solo 1

e-----------------------------------------------------------------------
B-----------------------------------------------------------------------
G-///-16-\\\------------------------------------------------------------
D-----------------------------------------------------------------------
A-----------------------------------------------------------------------
E-----------------------------------------------------------------------


e---7-----7----------7-----7----------7-----7---7-9-10-9-7--------------
B---7-----7----------7-----7----------7-----7---7-9-10-9-7-10-9-7.------
G---8-----8----------8-----8----------8-----8--------------10-9-7.------
D-----------------------------------------------------------------------
A-9---9-9---9-11-9-9---9-9---9-11-9-9---9-9---9-------------------------
E-7---7-7---7-7--7-7---7-7---7-7--7-7---7-7---7-------------------------


e-----------------------------------------------------------------------
B-(10)(9)--(10)(9)--(10)(9)--(10)(9)--(10)(9)--(10)(9)--(10)(9)---------
G-(10)(9)--(10)(9)--(10)(9)--(10)(9)--(10)(9)--(10)(9)--(10)(9)p7-------
D-----------------------------------------------------------------9-----
A-----------------------------------------------------------------------
E-----------------------------------------------------------------------


e-----------------------------------------------------------------------
B-9-7-------9-7-------9-7-------9-7-------------------------------------
G-9-7h8.----9-7h8.----9-7h8.----9-7h8.----------------------------------
D---------9---------9---------9---------9-------------------------------
A-----------------------------------------------------------------------
E-----------------------------------------------------------------------


e-----------------------------------------------------------------------
B-9-7-----9-7-----9-7-----9-7-----9-7-----9-----------------------------
G-9-7h8---9-7h8---9-7h8---9-7h8---9-7h8---9-----------------------------
D-------9-------9-------9-------9-------9-------------------------------
A-----------------------------------------------------------------------
E-----------------------------------------------------------------------


e-------7-------7-------7-------7-------7-------7-----------7\----------
B-------7-------7-------7-------7-------7-------7-9-7-------7\----------
G-9(11)---9(11)---9(11)---9(11)---9(11)---9(11)---9-7h8-----8\----------
D-----------------------------------------------------------------------
A-----------------------------------------------------------------------
E-----------------------------------------------------------------------



Solo 2   + The End

e-2---4---5--------2---4---5-------2---4---5-------2---4---5------------
B-4---5---7--------4---5---7-------4---5---7-------4---5---7------------
G-----------------------------------------------------------------------
D-----------------------------------------------------------------------
A-----------------------------------------------------------------------
E-----------------------------------------------------------------------


e-7----9---10-------7----9---10-------2---4---5-------2---4---5------5\-
B-9---10---12-------9---10---12-------4---5---7-------4---5---7------7\-
G-----------------------------------------------------------------------
D-----------------------------------------------------------------------
A-----------------------------------------------------------------------
E-----------------------------------------------------------------------


e-----------------------------------------------------------------------
B-----------------------------------------------------------------------
G-----------------------------------------------------------------------
D-11-11-13-11-11-11-13-11-9.--------------------------------------------
A-9--9--9--9--9--9--9--9--7.--------------------------------------------
E-----------------------------------------------------------------------



e-10-9-7---------------10-----------------------------------------------
B-10-9-7-10-9-7---9.---8--7~--------------------------------------------
G--------10-9-7---9.---9--8~--------------------------------------------
D---------------9------8--7~--------------------------------------------
A-----------------------------------------------------------------------
E-----------------------------------------------------------------------



SEE ALSO

LET IT SNOW TAB by Billy Idol